Oops, an error
Loading. Please wait.

Callejero De Boedo tab

version 3
version 3

Whole song

46 views 1 this week
no commentswrite comment
1 2 3 4 5
3 more votes to show rating
add to favorites
×
Save as Personal and add changes to this tab that will be seen only by you. Learn more ›
×
You can save this tab as Personal to edit and correct it or add notes. All changes will be seen only by you. Learn more »
launch autoscroll
font size
0
reset
how to read this tab
guitar tuner
edit
Autoscroll
slow
fast
+/-
esc
set tempo
stop
El tema ya estaba en la página, pero aca lo paso completo y
con algunas pequeñas correcciones:

CALLEJERO DE BOEDO

INTRO:

3|------3-4-6-4-3h4-3h4-3h4-3h4-------------------|
4|--2-3-------------------------5-4---------------|
5|----------------------------------5-4-2-1-------|
6|------------------------------------------2-3-2-|

5|------1-2-4-4-5--4-2h1h2h1h2h1...------|
6|-2-3-------------------------------3-2-|

(F#/G) x3 F#...

1|------------------------------------------------------------|
2|-11-------------------------------11-11---------------------| x2
3|----13-10-10-11--13-13-11-10-11-13------13-10-10-13-11-10...|


 A#                  B
Ahora que estas encerrado
     F#                      C#
y anclado en las sombras sin mas
 A#                         B
Ahora que el cielo es cielorrazo
       F#                  C#
no hay caso no te escuchan más


      F#            C#
San Lorenzo va a jugar
      D#m              C#
Y vos no vas a poder estar
     F#          C#
En silencio llorarás
       D#m              C#
no hay donde puedas escapar


  A#                         B
Devoto no es un viaje de egresados
        F#              C#
ni el sueño dorado de mamá
       A#             B
Pero peor es quedar tirado
                    F#                    C#
En la calle de un balazo, sangrando sin parar


     F#           C#
Callejeros va a tocar
     D#m              C#
La milonga que te trajo aca
     F#          C#
en silencio llorarás
        D#m             C#
no hay donde puedas escapar


Punteo:

1|--------------------------------6-6-6-6-------------|
2|---------6-7-9-7-6-7--9-7-7-7-9---------9-7-7-6---6-|
3|-----6h7----------------------------------------8---|
4|-8h9------------------------------------------------|

1|----5s6-66-66---5s6-66-66---6s7-77-77--6s7-77-77----|
2|----5s6-66-66---5s6-66-66---6s7-77-77--6s7-77-77----|
3|----------------------------------------------------|

1|--------------6----------------|
2|--7-6-7-9-7-9---9-7-7-6---6...-|
3|------------------------8------|

B            A#       D#m
El infierno tiene dirección
B        A#        D#m
y vos la conoces bien
B         A#   B         A#
por no sentir, por no sentir
B           A#    D#m           C#
El calor de una mujer, de una mujer

     F#           C#
Callejeros va a tocar
     D#m              C#
La milonga que te trajo aca
     F#          C#
en silencio llorarás
        D#m             C#
no hay donde puedas escapar

San Lorenzo va a jugar
      D#m              C#
Y vos no vas a poder estar
     F#          C#
En silencio llorarás
       D#m              C#
no hay donde puedas escapar

FINAL

1|--------------------6-6----------------------------------|
2|-6-6-7-9-9-7--6-7-9-----9-7-9-7-6-7-6-------------------|
3|---------------------------------------7-8-8-7-8-8-8~~-|

1|-------------------6-6-----7-6-----------------|
2|-6-7-9-9-7-6-7-9-------9-7-----9-7-6-----------|
3|-------------------------------------7-8~~...--|


Espero que les sirva esta completo y suena excelente,
los punteos quedan mejor con Wah-Wah... bueno, suerte y
a practicarlo que es facil

chr_conelrockenasvenas@


Jagger

            
            
Suggest correction
Creating personal tab
Creating personal tab
You can edit any tab online and save it as your Personal.

You can edit, replace or remove any tab part or add personal notes – all changes will be seen only by you.

Personal tabs can be accessed anytime from any device, even offline.
Learn more »
Give kudos to tab author, rate the tab!
1 2 3 4 5
comments
print report bad tab
guest
Wanna post a correction for this tab? Suggest correction