Oops, an error
Loading. Please wait.

El Duende Del Arbol Chords

899 views 6 this week
no commentswrite comment
1 2 3 4 5
please rate
add to favorites
launch autoscroll
font size
0
reset
transpose
0
reset
display chords
guitar tuner
Tab Pro tools
  • play this tab
  • loop segment
  • change instrument
  • show fretboard
  • metronome
×
Best way to learn
"El Duende Del Arbol"
Autoscroll
slow
fast
+/-
esc
set tempo
stop
Contributor
Difficulty
intermediate
INTRO:
E|-----------------------5-----
A|------------------------7----
D|-7---7-8-7---------------7---
G|--7-7-----7-5-7--------------
B|---7-------7---7-7-5-5-----5-
e|--------------------5-----5--

(con intro)
En sus ojos nunca pude encontrar maldad
Pero a veces para no morir hay que matar
Todo fue esa noche en que ciego y borracho nos quiso asustar
Pero un golpe sin suerte dejó a su cuchillo clavado en su mal

 G#                       C      C#              C
Así fue que al duende del árbol tuvimos que asesinar,
 B         Bb         G
Matar y cortar, y cortar.

(con intro)
Su cuchillo había destripado a dos duendes ya
Pero en estas historias nunca nadie puede celebrar
Asi fue que al duende del arbol en partes
Tuvimos que enterrar, tapar y olvidar, y olvidar

 D           G    Em          Bb
Cual es esa ley? pregunto el duende al sol
 D               G        Em            A
que aunque mate siempre, siempre obtendre el perdón
 D            D#  Em         C        A
Pero aquella ley  esa noche la rompi yo


[Este solo lo hace Juancho con el acordeon
con la guitarra sonaria algo asi] 

E|----------------------------------------------------------------|
A|----------------------------------------------------------------|
D|----------------------------------------------------------------|
G|-2-------------2-2--2------------2-0-2-----2-2---------2--------|
B|---0-1-0-3-1-0-------0-1-0-3-1-0------0-1-0---0-1-3-1-0-1-0-----|
e|----------------------------------------------------------------|

E|------------------------------------------------------------------|
A|------------------------------------------------------------------|
D|------------------------------------------------------------------|
G|-2-------------2-2--2------------2-0-2-----2-2---------2----2-1---|
B|---0-1-0-3-1-0-------0-1-0-3-1-0------0-1-0---0-1-3-1-0-1-0-------|
e|------------------------------------------------------------------|

E|--------------------------------------|
A|--------------------------------------|
D|--------------------------------------|
G|-1-2-1-0-------------------------3----|
B|--1-----1-1-2-2-2-2-2-1-1-0---1-0-----|
e|-----------------2--------------------|

Gm - Gm

(con intro)
Solo el cielo quiso ver lo que quedó de él
Nuestro miedo se hizo odio en un instante cruel.
Asi fue que al duende del árbol
De un tajo le pudimos dar
Un poquitito de paz, de paz.

(con intro)
Cual es esa ley? pregunto el duende al sol
que aunque mate siempre, siempre obtendré el perdon?
Pero aquella ley esa noche la rompi yo


D#                    A#          A
Y ahora tengo a este duende sepultado,
            Gm
Y ya sin perdón

Gm



comments
We did not receive enough feedback on this tab! Please rate:
print report bad tab
1 2 3 4 5
I want to post or [tab]
guest
You may want to rate the tab now too:
select rating
Please do not post tabs as comments. Select "correction" instead!