Oops, an error
Loading. Please wait.

El Ignorante bass

24 views 1 this week
no commentswrite comment
1 2 3 4 5
3 more votes to show rating
add to favorites
×
Save as Personal and add changes to this tab that will be seen only by you. Learn more ›
×
You can save this tab as Personal to edit and correct it or add notes. All changes will be seen only by you. Learn more »
launch autoscroll
font size
0
reset
guitar tuner
edit
Autoscroll
slow
fast
+/-
esc
set tempo
stop
intro

G|----------------------------------------------------------------------
D|-----------5-5-5-----6-6-6---6-6-6------------------------------------
A|------4-4--------4-5--------------------------------------------------
E|--6-7-------------------------------5-5/0---9-7-5-5/0-----------------

G|----------------------------------------------------------------------
D|------------------9-9-9---9------7------------------------------------
A|--------------5-7-------7---7--5-----5--------------------------------
E|--5-5/0---5-7---------------------------7----3-5-7-5-3----------------

Secuencia (1)   Cuando ignoramos..

G|----------------------------------------------------------------------
D|------------------9-9-9---9------7------------------------------------
A|--------------5-7-------7---7--5-----5--------------------------------
E|--5-5/0---5-7---------------------------7----3-5-7-5-3----------------

  El ignorante
G|----------------------------------------------------------------------
D|------------------9-9-9---9------7------------------------------------
A|--------------5-7-------7---7--5-----5--------------------------------
E|--5-5/0---5-7---------------------------7----3-5-7-5-7----------------

 Lo van boqueando
G|----------------------------------------------------------------------
D|----------------------------------------------------------------------
A|----11-11-11--11-11-11-------12-12-12--12-12-12-----------------------
E|--9---------------------9-10---------------------10--------  x2 ------

  Y el corazon
G|----------------------------------------------------------------------
D|------------------9-9-9---9-------------------------------------------
A|--------------5-7-------7---7----9-7-6-5----------------------17------
E|--5-5/0---5-7------------------7--------------------------------------

           Valorando......
E|--------17/5---5/0----------------------------------------------------

Todo esto lo hace de nuevo hasta que empieza a cantar el pato..
La ronda antes de que empiece el pato es asi..

Sin ignorar
G|----------------------------------------------------------------------
D|------------------9-9-9---9-------------------------------------------
A|--------------5-7-------7---7----9-7-6-5--5---5-----------------------
E|--5-5/0---5-7------------------7--------------------------------------

Ignorar a los que ignoran                tu fusil
G|----------------------------------------------------------------------
D|--------11-14-11-12---11-12-11-12------12-12-12-11--------------------
A|--12-14---------------------------------------------14-12---12--------
E|----------------------------------------------------------------------

No ignorar a Jesús..

G|----------------------------------------------------------------------
D|----------------------------------------------------------------------
A|----11-11-11--11-11-11-------12-12-12--12-12-12-----------------------
E|--9---------------------9-10---------------------10----------  x2-----


Ignorar tu identidad
G|----------------------------------------------------------------------
D|------------------9-9-9---9-------------------------------------------
A|--------------5-7-------7---7----9-7-6-5--5---5---12-12-12------------
E|--5-5/0---5-7------------------7--------------------------------------


Asi es que ignoro que no crea..  aquel que mi dolor no vea ni quiera ver
G|----------------------------------------------------------------------
D|-----------------16-----14x--------------------16----14x--------------
A|--------------16----16----------------------16----16------------------
E|-----------14----------------------------14---------------------------

Si en la luna y sus estreeeellas     o en el sol encuentro fuerzas
G|----------------------------------------------------------------------
D|----------------------------------------------------------------------
A|--------------9-------------11--------------------------------11------
E|---------7------------9---------------7--9--10--10---------9----------

Y en tus manos       el amor        y en tu abrazo encuentro   eso
G|----------------------------------------------------------------------
D|----------------------------------------------------------------------
A|------16-18-16------14-16-14---x2-------------------------------------
E|---16-------------14--------------------------------------------------

  que llaman dios
G|----------------------------------------------------------------------
D|--------------9-----------10-12-10-------9----------------------------
A|------------7-----7-9-10---------------7---7-9-10---10-11--11--12-----
E|----------------------------------------------------------------------


Bueno ahí estaria..
Nos vemos cualquier consulta a german_13mza@
Si ven que algo esta mal tambien avisenme
Abrazo y buena vida
Aguante callejeros
Suggest correction
Creating personal tab
Creating personal tab
You can edit any tab online and save it as your Personal.

You can edit, replace or remove any tab part or add personal notes – all changes will be seen only by you.

Personal tabs can be accessed anytime from any device, even offline.
Learn more »
Give kudos to tab author, rate the tab!
1 2 3 4 5
comments
print report bad tab
guest
Wanna post a correction for this tab? Suggest correction