Oops, an error
Loading. Please wait.

Tiempo De Estar bass

15 views 1 this week
no commentswrite comment
1 2 3 4 5
3 more votes to show rating
add to favorites
×
Save as Personal and add changes to this tab that will be seen only by you. Learn more ›
×
You can save this tab as Personal to edit and correct it or add notes. All changes will be seen only by you. Learn more »
launch autoscroll
font size
0
reset
guitar tuner
edit
Autoscroll
slow
fast
+/-
esc
set tempo
stop
Intro Lam ? Fa ? Sol ? Lam X2


G|----------------------------------------------------------------------
D|----------------------------------------------------------------------
A|-----77--5---------33--1-------55--3------77--5-----------------------
E|---5------------1-----------3----------5------------------------------ x2

Tanta hiena riendo a carcajadas..

(aca hace lo mismo que en la intro, con la diferencia que en cada nota
lo hace dos veces en vez de una)

G|------------------------------------------------------------------------
D|------------------------------------------------------------------------
A|--77--5----77--5----33--1----33--1-----55--3----55--3-----77--5---77--5-
E|5--------5--------1--------1---------3--------3--------5--------5-------

                               X2

Y al suburbio rodando con hermanos
G|---------------------------------------------------------------------
D|---------------------------------------------------------------------
A|---------77--5---------77--5--------55---3---------55--3-------------
E|---5555----------5555---------3333-----------3333--------------------

  Ciento por ciento mi tiempo de estar
G|---------------------------------------------------------------------
D|---22222222222-------33333333333-----------------------------------
A|---------------------------------------------------------------------
E|---------------------------------------------------------------------


Que al suburbio rodando con hermanos
G|---------------------------------------------------------------------
D|---------------------------------------------------------------------
A|---------77--5---------77--5--------55---3---------55--3-------------
E|---5555----------5555---------3333-----------3333--------------------

Ciento por ciento mi tiempo de estar
G|----------2-----------------------------------------------------------
D|--2?3?5------5?3?2----------------------------------------------------
A|--------------------------77--5------77--5----------------------------
E|-----------------------5----------5-----------------------------------
Ciento por ciento mi tiempo de estar en paz, de ver algun sol mas,d imagin
G|----------2-------------------------------------------------------------
D|2?3?5------5?3?2--------------------------------------------------------
A|-------------------33--1------33--1-----55--3-----55--3----77-5----77--5
E|-----------------1----------1---------3---------3---------5-------5-----

Ciento por ciento mi tiempo de estar en paz, de ver algun sol mas,d imagin
G|----------2-------------------------------------------------------------
D|2?3?5------5?3?2--------------------------------------------------------
A|-------------------33--1------33--1-----55--3-----55--3----77-5----77--5
E|-----------------1----------1---------3---------3---------5-------5-----


Tanta jaula por bardear la inocente
G|------------------------------------------------------------------------
D|------------------------------------------------------------------------
A|--77--5----77--5----33--1----33--1-----55--3----55--3-----77--5---77--5-
E|5--------5--------1--------1---------3--------3--------5--------5-------

                               X2
Que al suburbio rodando con hermanos
G|---------------------------------------------------------------------
D|---------------------------------------------------------------------
A|---------77--5---------77--5--------55---3---------55--3-------------
E|---5555----------5555---------3333-----------3333--------------------

Ciento por ciento mi tiempo de estar
G|----------2-----------------------------------------------------------
D|--2?3?5------5?3?2----------------------------------------------------
A|--------------------------77--5------77--5----------------------------
E|-----------------------5----------5-----------------------------------
Ciento por ciento mi tiempo de estar en paz, de ver algun sol mas,d imagin
G|----------2-------------------------------------------------------------
D|2?3?5------5?3?2--------------------------------------------------------
A|-------------------33--1------33--1-----55--3-----55--3----77-5----77--5
E|-----------------1----------1---------3---------3---------5-------5-----

Ciento por ciento mi tiempo de estar en paz, de ver algun sol mas,d imagin
G|----------2-------------------------------------------------------------
D|2?3?5------5?3?2--------------------------------------------------------
A|-------------------33--1------33--1-----55--3-----55--3----77-5----77--5
E|-----------------1----------1---------3---------3---------5-------5-----


Solo
( hace el corte a la par de la bateria en Lam- Fa- Sol_ Lam ) (2:30)

G|----------------------------------------------------------------------
D|----------------------------------------------------------------------
A ----------------------------------------------------------------------
E|----5-5-------1-1-------3-3-----5-5-----------------------------------

En el minuto 2:36 hace lo mismo que en la intro hasta el minuto 2:41
que hace asi


G|-------------------------------------------------------------------------
D|7--------7----------3-------3---------5--------5--------7---------7------
A|--77--5-----77--5-----33--1-----33--1----55--3----55--3-----77--5----77-5
E|-------------------------------------------------------------------------

  Ni un millon de giras dan el dolor..
G|-------------------------------------------------------------------------
D|-------------------------------------------------------------------------
A|---77--5----77--5----33--1----33--1-----55--3----55--3-----77--5---77--5-
E|-5--------5--------1--------1---------3--------3--------5--------5-------

                      X2


Que al suburbio rodando con hermanos
G|---------------------------------------------------------------------
D|---------------------------------------------------------------------
A|---------77--5---------77--5--------55---3---------55--3-------------
E|---5555----------5555---------3333-----------3333--------------------

Ciento por ciento mi tiempo de estar
G|----------2-----------------------------------------------------------
D|--2?3?5------5?3?2----------------------------------------------------
A|--------------------------77--5------77--5----------------------------
E|-----------------------5----------5-----------------------------------
Ciento por ciento mi tiempo de estar en paz, de ver algun sol mas,d imagin
G|----------2-------------------------------------------------------------
D|2?3?5------5?3?2--------------------------------------------------------
A|-------------------33--1------33--1-----55--3-----55--3----77-5----77--5
E|-----------------1----------1---------3---------3---------5-------5-----

Ciento por ciento mi tiempo de estar en paz, de ver algun sol mas,d imagin
G|----------2-------------------------------------------------------------
D|2?3?5------5?3?2--------------------------------------------------------
A|-------------------33--1------33--1-----55--3-----55--3----77-5----77--5
E|-----------------1----------1---------3---------3---------5-------5-----


Luego hace

G|-----------2--------------2-------------2------------2---------------
D---2--2--5--------3--3--5------2--2---5------3-3---5------------------
A|----------------------------------------------------------------------
E|----------------------------------------------------------------------

Y despues
G|---------------------------------------------------------------------
D|-------------------------44------------------------------------------
A|-----------------------------77--55--44-------------------------------
E|-------555555555555----------------------55555------------------------

Primero escuchen bien en tema para saber el ritmo del bajo..
sobresale bastante asiq no se les va a hacer difícil..
cualquier cosa a german_13mza@

Agitando rocanroles irresistibles

Callejeros..

            
            
Suggest correction
Creating personal tab
Creating personal tab
You can edit any tab online and save it as your Personal.

You can edit, replace or remove any tab part or add personal notes – all changes will be seen only by you.

Personal tabs can be accessed anytime from any device, even offline.
Learn more »
Give kudos to tab author, rate the tab!
1 2 3 4 5
comments
print report bad tab
guest
Wanna post a correction for this tab? Suggest correction