Oops, an error
Loading. Please wait.

Grand Finale Tab

681 views 1 this week
no commentswrite comment
1 2 3 4 5
please rate
add to favorites
launch autoscroll
font size
0
reset
how to read this tab
guitar tuner
Autoscroll
slow
fast
+/-
esc
set tempo
stop
Help us to improve Ultimate-Guitar.com Take our survey!
×
Contributor
Difficulty
Omarris 32
intermediate
I got tired of the lack of Callie tabs so I decided to write it out.
This is an absolutely amazing song, and my first tab I've ever written out.
I tabbed this off of her unplugged video so it may not be exactly the
same as the album recording but I'm sure it is mostly correct!
Omarris- E.R.N

LEGEND
/ = SLIDE
h = HAMMER ON
p = PULL OFF
If all the strings have X's on them its a mute

INTRO
e-----0---0---0---------0---0---0---------0---0---0---------0---0-0--|
B-------0---1---0---------0-----------------0---1---0---------0---1--|
G-0h2-------------------------2---1---0h2-----------------0-------2--|
D-------------------0h2-------------------------------------------2--|
A-----------------------------------------------------------------0--|
E-----------------------------------------------------------------0--|


e-----0---0---0---------0---0---0--------0---0---0-3/5-55-x-4--44--11-00--|
B-------0---1---0---------0----------------0---1---1/5-55-x-5--55--33-33--|
G-0h2-------------------------2---1---0h2----------2/5-55-x-4--44--00-00--|
D-------------------0h2----------------------------2/3-33-x-x--xx--xx-xx--|
A--------------------------------------------------x/x-xx-x-x--xx--xx-xx--|
E--------------------------------------------------x/x-xx-x-x--xx--xx-xx--|


e---0-1-0---------0-1-0------0---0---0--------0---0-0--|
B-3-------1---1/3--------------0---1---0--------0---1--|
G-----------2-2/4--------0h2----------------0-------2--|
D---------------------------------------------------2--|
A---------------------------------------------------0--|
E---------------------------------------------------0--|

|Am|E|Am|E|Am|x2
(listen to song for timing)

Am
Say what you will, love
                         E                 Am
What have you wanted to say to me for so long?
You're anything but delicate
Am
Jeers won't offend me
    C                         E
My ears won't pretend to not hear
                          Am
What i have always done wrong

So Baby

Say what you will, love
              E
It might be smooth, and it might be rough
                     Am
Your words are only sounds
They come around
            C
They go to town
They bring me down
         E                         Am
Then i drown them in my half-empty cup

                    C         G           Am
The most beautiful sound that I have ever ... heard
                    C         G       Am
Doesn't even come close to being your ... words


e-----0---0---0--------0---0---0--------0---0---0--------0---0-0--|
B-------0---1---0--------0----------------0---1---0--------0---1--|
G-0h2------------------------2---1--0h2----------------0-------2--|
D------------------0h2-----------------------------------------2--|
A--------------------------------------------------------------0--|
E--------------------------------------------------------------0--|

Am
Say what you will, love
                    E                   Am
Everything is just colour separated by light
I can't deny you your sight
Am                    C
But you see what you want
                 E                                 Am
And it won't be long before you think that you're right
So open your eyes to the truth of the thing
                    E                     Am
It's got nothing to do with acts and intermissions and scenes
You poor delusional man
         C
I try to do what i can
               E                         Am
But still I'm losing you inside of the screen

                     C              G           Am
The most beautiful thing that I've seen in this ... life
               C                    G            Am
You can't understand, cause you've made yourself ... blind

|Am|E|Am|E|Am|x2

(double digit frets here)
e-0-------------0--------------0---------0-----------0-----------------0---|
B-14------------14-------------14--------12----------12----------------10--|
G-14------------13-------------12--------11----------10----------------9---|
D-14------------14-------------14--------12----------11----------------11--|
A--------------------------------------------------------------------------|
E--------------------------------------------------------------------------|
  Walk where you will, love, It won't be long before you trip over the one

e-----------------0--------0-----------0--------------0---0------------0---|
B-----------------14-------14----------14-------------12--12-----------10--|
G-----------------14-------13----------12-------------11--10-----------9---|
D-----------------14-------14----------14-------------12--12-----------11--|
A--------------------------------------------------------------------------|
E--------------------------------------------------------------------------|
  thing that's not in your way but somehow you still manage to stumble upon

e----5-5-------55-------0------------------------------|
B----6-6-------66-------5------------------------------|
G----7-7-------77-------5------------------------------|
D----7-7-------77-------5------------------------------|
A----5-5-------55-------0------------------------------|
E----x-x-------xx-------x------------------------------|
  An untamed, unwritten girl, she paints her own line,

e-------5----------5--55-------0--------------------------------5----5--|
B-------6----------6--66-------5--------------------------------6----6--|
G-------7----------7--77-------5--------------------------------7----7--|
D-------7----------7--77-------5--------------------------------7----7--|
A-------5----------5--55-------0--------------------------------5----5--|
E-------x----------x--xx-------x--------------------------------x----x--|
  It's unstraight, unnarrow, unraveled and curled, and in your state of

e---55------------0-------------------------------0----------------0---|
B---66------------5-------------------------------4----------------3---|
G---77------------5-------------------------------4----------------3---|
D---77------------5-------------------------------4----------------3---|
A---55------------0-------------------------------0----------------0---|
E---xx------------x-------------------------------x----------------x---|
  Psychiatric certainty, you're sure she's gonna ruin your whole world

  So

Am
Go if you want, love
                 E              Am
I might just be crying in your tracks
But most likely not
                          C
So if it makes you feel better
                       E                              Am
When she asks you can tell her that I still want you back
You're always good at that
Am
Lie all your life, love
Say what she wants to hear
E
Play on her biggest fears
Am                                            C
Manipulate her tears and give us your grand finale
                           E
And just stand there and tally your ovation
    Am                                 E                    Am
So dear, I think you find there will be no-one standing in here.
comments
We did not receive enough feedback on this tab! Please rate:
print report bad tab
1 2 3 4 5
I want to post or [tab]
guest
You may want to rate the tab now too:
select rating
Please do not post tabs as comments. Select "correction" instead!