Oops, an error
Loading. Please wait.

En Apesanteur Bass Tab

version 1
version 1

Whole song

Interactive

154 views 1 this week
no commentswrite comment
1 2 3 4 5
3 more votes to show rating
add to favorites
launch autoscroll
font size
0
reset
guitar tuner
Autoscroll
slow
fast
+/-
esc
set tempo
stop
Help us to improve Ultimate-Guitar.com Take our survey!
×
[Intro]

G|-------------------------|-----------------|-----------------|-----------------|
D|-11-11-11-11-11-11-11-11-|-9-9-9-9-9-9-9-9-|-8-8-8-8-8-8-8-8-|-7-7-7-7-7-7-7-7-|  X2
A|-------------------------|-----------------|-----------------|-----------------| 
E|-------------------------|-----------------|-----------------|-----------------|



[Verse]

G|----9-8-9-9---|-9-8-9-9---|-9-8-9-9---|-9-11-11-9-9-|
D|-11---------9-|-----------|---------9-|-------------|  X2
A|--------------|---------9-|-----------|-------------|
E|--------------|-----------|-----------|-------------|



[Chorus]

G|-----------------|-----------------|----------------|----------------|
D|-----------------|-----------------|------9-9-------|------9-9-------|
A|-----------------|-----------------|---11-----11-11-|---11-----11-11-|
E|-2-2-2-2-2-2-2-2-|-7-7-7-7-7-7-7-7-|-9--------------|-9--------------|

G|-----------------|-----------------|-----------------|-----------------|         X2
D|-----------------|-----------------|-----------------|-7-7-6-6-4-4-----|
A|-----------------|-----------------|-----------------|-------------7-7-|
E|-2-2-2-2-2-2-2-2-|-7-7-7-7-7-7-7-7-|-5-5-5-5-5-5-5-5-|-----------------|



[Verse]

G|----9-8-9-9---|-9-8-9-9---|-9-8-9-9---|-9-11-11-9-9-|
D|-11---------9-|-----------|---------9-|-------------|  X4
A|--------------|---------9-|-----------|-------------|
E|--------------|-----------|-----------|-------------|



[Chorus]

G|-----------------|-----------------|----------------|----------------|
D|-----------------|-----------------|------9-9-------|------9-9-------|
A|-----------------|-----------------|---11-----11-11-|---11-----11-11-|
E|-2-2-2-2-2-2-2-2-|-7-7-7-7-7-7-7-7-|-9--------------|-9--------------|

G|-----------------|-----------------|-----------------|-----------------|         X2
D|-----------------|-----------------|-----------------|-7-7-6-6-4-4-----|
A|-----------------|-----------------|-----------------|-------------7-7-|
E|-2-2-2-2-2-2-2-2-|-7-7-7-7-7-7-7-7-|-5-5-5-5-5-5-5-5-|-----------------|




[Bridge]

G|-------------------------|-----------------|-----------------|-----------------|
D|-11-11-11-11-11-11-11-11-|-9-9-9-9-9-9-9-9-|-8-8-8-8-8-8-8-8-|-7-7-7-7-7-7-7-7-|  X2
A|-------------------------|-----------------|-----------------|-----------------| 
E|-------------------------|-----------------|-----------------|-----------------|

G|-------------------------|-----------------|-----------------|
D|-11----------------------|-9---------------|-11--------------|  
A|-------------------------|-----------------|-----------------| 
E|-------------------------|-----------------|-----------------|

G|-------------------------|-----------------|-----------------|
D|-11----------------------|-9---------------|-7---------------|  
A|-------------------------|-----------------|-----------------| 
E|-------------------------|-----------------|-----------------|




[Outro]


G|---------|
D|---------|  
A|---------|
E|-5-4-2-0-|

G|-----------------|-----------------|----------------|----------------|
D|-----------------|-----------------|------9-9-------|------9-9-------|
A|-----------------|-----------------|---11-----11-11-|---11-----11-11-|
E|-2-2-2-2-2-2-2-2-|-7-7-7-7-7-7-7-7-|-9--------------|-9--------------|

G|-----------------|-----------------|-----------------|-----------------|      X4   
D|-----------------|-----------------|-----------------|-7-7-6-6-4-4-----|
A|-----------------|-----------------|-----------------|-------------7-7-|
E|-2-2-2-2-2-2-2-2-|-7-7-7-7-7-7-7-7-|-5-5-5-5-5-5-5-5-|-----------------|



G|-----------------|-----------------|-----------------|
D|-----------------|-----------------|-----------------|
A|-----------------|-----------------|-----------------|
E|-2-2-2-2-2-2-2-2-|-7-7-7-7-7-7-7-7-|-9---------------|





Suggest correction
Give kudos to tab author, rate the tab!
1 2 3 4 5
comments
print report bad tab
guest
You may want to rate the tab now too:
select rating
Wanna post a correction for this tab? Suggest correction