Oops, an error
Loading. Please wait.

Feel So Close Chords

version 1
version 1

Whole song

Interactive

112,177 views 45 this week
3 commentsread comments
1 2 3 4 5
x 9
add to favorites
launch autoscroll
font size
0
reset
transpose
0
reset
display chords
guitar tuner
Autoscroll
slow
fast
+/-
esc
set tempo
stop
Help us to improve Ultimate-Guitar.com Take our survey!
×
Author
Difficulty
novice
Calvin Harris - Feel So Close
-------------------------------------------------------------------
Tabbed by: AlexGibbo27 with original tab except guitar part from Brendan Conboy
Email: AlexGibbo5@hotmail.com

Tuning: Standard

Chords for the Verse are:

Am Em G C

You can play these barred if you like.

Chorus is slightly more complex as the bass takes effect as follows.

Am B Em F# G D C C B A  Em G

[Main Bass Riff]
e|-------------------------------------------------------------------|
B|-------------------------------------------------------------------|
G|-------------------------------------------------------------------|
D|-------------------------------------------------------------------|
A|-----------------------------------------5-5-5-5-3-3-3-3---3-2-0---|
E|-5-5-5-5-7-7-7-7-0-0-0-0-2-2-2-2-3-3-3-3-------------------------3-|

You can always play these with barred chords. Listen to the song to gain the tempo and
movement of notes towards the end of the rift.

Finally there is a guitar lead that comes in just before the chorus to and plays
throughout. Its picked at first and then its strummed upwards later at just a fraction 
off timing. Plenty of distortion but do not let ring.


[Guitar Riff]
e|-------------------------------------------------------------------|
B|-------------------------------------------------------------------|
G|---16--16--16--16--16--16--16--16--16--16--16--16--12--12--12--12--|
D|-17--17--17--17--16--16--16--16--14--14--14--14--10--10--10--10----|
A|-------------------------------------------------------------------|
E|-------------------------------------------------------------------|

Am          Em         G
I feel so close to you right now
           C
It's a force feel

I wear my heart upon my sleeve, like a big deal
Your love bows down, I mean surround me like a waterfall
And there's no stopping us right now
I feel so close to you right now

(Guitar Riff)
(Bass Rift and Guitar Rift Strum)

e|--------------------------------------------------------------------------|
B|--------------------------------------------------------------------------|
G|--16--16--16--16--16--16--16--16--16--16--16--16--12--12--12--12----------|
D|--17--17--17--17--16--16--16--16--14--14--14--14--10--10--10--10----------|
A|--------------------------------------------------------------------------|
E|--------------------------------------------------------------------------|

I feel so close to you right now
It's a force feel
I wear my heart upon my sleeve, like a big deal
Your love bows down, I mean surround me like a waterfall
And there's no stopping us right now
I feel so close to you right now

(Guitar Rift)
(Bass Rift and Guitar Rift Strum)

And there's no stopping us right now

And there's no stopping us right now

And there's no stopping us right now

I feel so close to you right now...

Any improvements or suggestions please email me. Have fun!
Suggest correction
comments
print report bad tab
3 comments total.
0 reply
rockinjoe12 10 Apr 19, 2012 05:56 PM

I think the Am should be an Am7 instead, just my personal opinion.

0 reply
BeardedBard 42 Jul 19, 2012 08:30 AM

No offense, but a "rift" is a guitar "riff" and "force feel" is "force field"

0 reply
machiel_rijn 10 Aug 30, 2014 12:41 PM

Guitar Riff
e|-------------------------------------------------------------------|
B|-------------------------------------------------------------------|
G|---16--16--16--16--16--16--16--16--16--16--16--16--12--12--12--12--|
D|-17--17--17--17--16--16--16--16--14--14--14--14--10--10--10--10----|
A|-------------------------------------------------------------------|
E|-------------------------------------------------------------------|

Must be
Guitar Riff
e|-------------------------------------------------------------------|
B|-------------------------------------------------------------------|
G|---17--17--17--17--16--16--16--16--16--16--16--16--12--12--12--12--|
D|-17--17--17--17--16--16--16--16--14--14--14--14--10--10--10--10----|
A|-------------------------------------------------------------------|
E|-------------------------------------------------------------------|

guest
You may want to rate the tab now too:
select rating
Wanna post a correction for this tab? Suggest correction