Oops, an error
Loading. Please wait.

Feel So Close bass

version 2
version 2

Whole song

Interactive

442 views 6 this week
1 commentread comment
1 2 3 4 5
x 3
add to favorites
×
Save as Personal and add changes to this tab that will be seen only by you. Learn more ›
×
You can save this tab as Personal to edit and correct it or add notes. All changes will be seen only by you. Learn more »
launch autoscroll
font size
0
reset
guitar tuner
edit
Autoscroll
slow
fast
+/-
esc
set tempo
stop
Author
Difficulty
Title: Feel So Close
Album: 18 Months
Artist: Calvin Harris
Transcription: Bass Tab
Tuning: Standard E A D G
Tabbed by: Phoenix Ferrari

Main:
G|---------------------------------------------------------------------|
D|---------------------------------------------------------------------|
A|-----------------------------------------5-5-5-5-3-3-3-3-3-2-0-------|
E|-5-5-5-5-7-7-7-7-0-0-0-0-2-2-2-2-3-3-3-3-----------------------3-----|

or

G|--------------------------------------------7---7---5---5------------|
D|---7---7---9---9---2---2---4---4---5---5-----------------------------|
A|------------------------------------------5---5---3---3---3-2-0------|
E|-5---5---7---7---0---0---2---2---3---3--------------------------3----|

Hope you enjoyed the tab, if so please rate!
Feedback in the comments would be much appreciated!

            
            
Suggest correction
Creating personal tab
Creating personal tab
You can edit any tab online and save it as your Personal.

You can edit, replace or remove any tab part or add personal notes – all changes will be seen only by you.

Personal tabs can be accessed anytime from any device, even offline.
Learn more »
Give kudos to tab author, rate the tab!
1 2 3 4 5
comments
print report bad tab
1 comment total.
0 reply
BrittySixx 10 Jan 31, 2016 03:17 AM, edited on February 5 2016, 08:18 am

nice

guest
You may want to rate the tab now too:
select rating
Wanna post a correction for this tab? Suggest correction