Oops, an error
Loading. Please wait.

Feels bass

version 1
version 1

Whole song

  • This is the first time I have made a tab and I mig... Show more
  • Correct notes and has the whole song in a logical layout unlike the others.
14,590 views 840 this week
3 commentsread comments
1 2 3 4 5
x 24
add to favorites
×
Save as Personal and add changes to this tab that will be seen only by you. Learn more ›
×
You can save this tab as Personal to edit and correct it or add notes. All changes will be seen only by you. Learn more »
launch autoscroll
font size
0
reset
guitar tuner
edit
Autoscroll
slow
fast
+/-
esc
set tempo
stop
About this tab version
This is the first time I have made a tab and I might make more. I just wanted start with something easy for my first tab. I will make better and more difficult tabs in the future.so stick around if you want to. Was this info helpful? Yes No
This bass line is used for most of the song, except for the bridge.
G|---------------------------------------------------------------------------|
D|---------------------------9--9-----------------14--12--------9--9---------|
A|-------9-10-12--10--9-9------------------9-10-12--10---9-9-----------------|
E|-12-12-----------------------------12-12-----------------------------------|

[Bridge(Big Sean)]
G|---------------|
D|---------------|
A|---------------|
E|-0-0----0-0-2-0|

G|---------------------------------|
D|---------------------------------|
A|---------------------------------|
E|-12-10-12--14-12-14--15-14-15--17|

            
            
Suggest correction
Creating personal tab
Creating personal tab
You can edit any tab online and save it as your Personal.

You can edit, replace or remove any tab part or add personal notes – all changes will be seen only by you.

Personal tabs can be accessed anytime from any device, even offline.
Learn more »
comments
print report bad tab
3 comments total.
+3 reply
thedragonxnasty 22 Jul 13, 2017 04:42 AM

this is spot on! Love it!

0 reply
djryanking 10 Aug 12, 2017 02:12 PM

Does the main riff need playing a few octaves lower on the E ? 12th fret is not very bassy.

0 reply
xergius 10 Sep 02, 2017 01:40 AM

SORRY WHEN I POSTED IT IT MESSED UP - this is most of it.. but you're playing it a little high on the neck. also, you're forgetting the higher octave notes as he walks the line back down.

The verse switches between(in reverse order):
D|--22--------7--5-------|
A|--------------------22-|
E|----0-2-3-5--3---22----|
AND
D|--22-------------------|
A|-------------------22--|
E|-----2-3-5--3--22------|

oh, and the rap part he switches between:
D|------------||D|--22--------|
A|------------||A|------------|
E|--00-0-0-3--||E|-----0-0-3--|

nice job though! hope this helps.

guest
You may want to rate the tab now too:
select rating
Wanna post a correction for this tab? Suggest correction