Oops, an error
Loading. Please wait.

How Deep Is Your Love bass

2,335 views 21 this week
no commentswrite comment
1 2 3 4 5
x 3
add to favorites
×
Save as Personal and add changes to this tab that will be seen only by you. Learn more ›
×
You can save this tab as Personal to edit and correct it or add notes. All changes will be seen only by you. Learn more »
launch autoscroll
font size
0
reset
guitar tuner
edit
Autoscroll
slow
fast
+/-
esc
set tempo
stop
Author
Difficulty
Artist: Calvin Harris
  song: How Deep Is Your Love

(Intro)

G|---------|---------|---------|---------|
D|---------|---------|---------|---------|
A|-33---33-|-33---33-|-33---33-|-33---33-|
E|---------|---------|---------|---------|  x 4

Aah aah aah oo ooh, Aah aah aah oo ooh

I want you to breathe me, let me be your air
                 
Let me roam your body freely, no inhibition, no fear

How deep is your love?

(pattern 1)

G|---------|---------|---------|---------|
D|---------|---------|---------|---------|
A|---------|-33---33-|-00---00-|-00---00-|
E|-00---00-|---------|---------|---------|  x 2

Is it like the ocean? What devotion? Are you?
                  
How deep is your love? Is it like nirvana?
        
Hit me harder, again

(pattern 2)

G|---------|---------|---------|---------|
D|---------|---------|---------|---------|
A|-33---33-|-33---33-|-00---00-|-00---00-|
E|---------|---------|---------|---------|  

G|---------|---------|---------|---------|
D|---------|---------|---------|---------|
A|-33---33-|-33---33-|-00---00-|---------|
E|---------|---------|---------|---------| 

How deep is your love? How deep is your love?
                  
How deep is your love? Is it like the ocean?

Pull me closer, again

(pattern 3)

G|---------|---------|---------|---------|
D|---------|---------|---------|---------|
A|-77---77-|-33---33-|-00---00-|-00---00-|
E|---------|---------|---------|---------|  x 2

How deep is your love?
                  
How deep is your love?

(pattern 2b)

G|---------|---------|---------|---------|
D|---------|---------|---------|---------|
A|-33---33-|-33---33-|-00---00-|-00---00-|
E|---------|---------|---------|---------|  

G|---------|---------|---------|---------|
D|---------|---------|---------|---------|
A|-33---33-|-33---33-|-00---00-|-00---00-|
E|---------|---------|---------|---------| 

Open up my eyes and tell me who I am

Let me in on all your secrets, no inhibition, no sin

How deep is your love?

(pattern 1)

G|---------|---------|---------|---------|
D|---------|---------|---------|---------|
A|---------|-33---33-|-00---00-|-00---00-|
E|-00---00-|---------|---------|---------|  x 2


Is it like the ocean? what devotion? Are you?

How deep is your love? Is it like nirvana?

Hit me harder, again. 

(pattern 2)

G|---------|---------|---------|---------|
D|---------|---------|---------|---------|
A|-33---33-|-33---33-|-00---00-|-00---00-|
E|---------|---------|---------|---------|  

G|---------|---------|---------|---------|
D|---------|---------|---------|---------|
A|-33---33-|-33---33-|-00---00-|---------|
E|---------|---------|---------|---------| 

How deep is your love? How deep is your love?

How deep is your love? Is it like the ocean?
         
Pull me closer, again

(pattern 3)

G|---------|---------|---------|---------|
D|---------|---------|---------|---------|
A|-77---77-|-33---33-|-00---00-|-00---00-|
E|---------|---------|---------|---------|  x 2
                 
How deep is your love? How deep is your love?


(pattern 4)

G|---------|---------|---------|---------|
D|---------|---------|---------|---------|
A|-7-------|---------|-0-------|---------|
E|---------|---------|---------|---------|  x 2

How deep is your love? How deep is your love?

(pattern 2)

G|---------|---------|---------|---------|
D|---------|---------|---------|---------|
A|-33---33-|-33---33-|-00---00-|-00---00-|
E|---------|---------|---------|---------|  

G|---------|---------|---------|---------|
D|---------|---------|---------|---------|
A|-33---33-|-33---33-|-00---00-|---------|
E|---------|---------|---------|---------| 

How deep is your love? How deep is your love?

Pull me closer again.

(pattern 3)

G|---------|---------|---------|---------|
D|---------|---------|---------|---------|
A|-77---77-|-33---33-|-00---00-|-00---00-|
E|---------|---------|---------|---------|  x 4

How deep is your love? How deep is your love?



            
            
Suggest correction
Creating personal tab
Creating personal tab
You can edit any tab online and save it as your Personal.

You can edit, replace or remove any tab part or add personal notes – all changes will be seen only by you.

Personal tabs can be accessed anytime from any device, even offline.
Learn more »
Give kudos to tab author, rate the tab!
1 2 3 4 5
comments
print report bad tab
guest
You may want to rate the tab now too:
select rating
Wanna post a correction for this tab? Suggest correction