Oops, an error
Loading. Please wait.

My Way Tab

version 1
version 1

Solo

2,212 views 27 this week
1 commentread comment
1 2 3 4 5
x 5
add to favorites
launch autoscroll
font size
0
reset
how to read this tab
guitar tuner
Autoscroll
slow
fast
+/-
esc
set tempo
stop
Author
Difficulty
Tuning
novice
E A D G B E
Hello, 
    The following includes the riff (melody) that plays during the post-chorus of "My Way" by Calvin Harris, 
and as well as the tab version of the chorus.

The chords used are from the version of user: Red_Stuff  (hope you don't mind)

[Chorus]
Em                     D
You were the one thing in my way
G                      Am
You were the one thing in my way
Em                     D        Am
You were the one thing in my way

e|----------------------------------------------------------------|
B|--3-3-------------------------------------3-3-------------------|
G|-------4-4---2-2-2-4---0-0---0-2-4-------------4-4---2-2-0-2h4--|  x2
D|------------------------------------2-0-2-----------------------|
A|----------------------------------------------------------------|
E|----------------------------------------------------------------|

[post-Chorus]

 Em  D     G             Am
My way... Oh way oh way oh way
   Em  D     Am
My way... Oh way oh way oh way

e|---0---0-0-----------------------------0---0-0-------------------------------|
B|------------3-3---3-----------------------------3-3---3----------------------|
G|---------------------0---0-0---5-5-5-4-------------------2---2-2--2-2-2-4----|  x6
D|-----------------------------------------------------------------------------|
A|-----------------------------------------------------------------------------|
E|-----------------------------------------------------------------------------|

                                        OR

The open notes on the "e" string can also be played on the "B" string, 5th fret:

e|---------------------------------------------------------------------------------|
B|---5---5-5---3-3---3---------------------5---5-5---3-3---3-----------------------|
G|----------------------0---0-0---5-5-5-4---------------------2---2-2--2-2-2-4-----|  x6
D|---------------------------------------------------------------------------------|
A|---------------------------------------------------------------------------------|
E|---------------------------------------------------------------------------------|

                                        OR

   Em         D            G          Am       G    Em         D            Am
e|-3---3--3---5--5----5--|-7---7--7---8--8--8--7--|-3---3--3---5--5----5--|-5---5--5---5--5--5--5--|
B|-5---5--5---7--7----7--|-8---8--8---10-10-10-8--|-5---5--5---7--7----7--|-5---5--5---5--5--5--5--|
G|-4---4--4---7--7----7--|-7---7--7---9--9--9--7--|-4---4--4---7--7----7--|-5---5--5---5--5--5--5--|  x6
D|-----------------------|------------------------|-----------------------|------------------------|
A|-----------------------|------------------------|-----------------------|------------------------|
E|-----------------------|------------------------|-----------------------|------------------------|

(pick with fingers, play chords staccato)
Suggest correction
comments
print report bad tab
1 comment total.
0 reply
asdfghjkrwdsfgh 12 Nov 23, 2016 09:08 PM

didn't like this contribution

guest
You may want to rate the tab now too:
select rating
Wanna post a correction for this tab? Suggest correction