Oops, an error
Loading. Please wait.

My Way Tab

version 1
version 1

Solo

688 views 42 this week
2 commentsread comments
1 2 3 4 5
2 more votes to show rating
add to favorites
launch autoscroll
font size
0
reset
how to read this tab
guitar tuner
Autoscroll
slow
fast
+/-
esc
set tempo
stop
Help us to improve Ultimate-Guitar.com Take our survey!
×
Author
Difficulty
novice
Hello, 
    The following includes the riff (melody) that plays during the post-chorus of "My Way" by Calvin Harris, 
and as well as the tab version of the chorus.

The chords used are from the version of user: Red_Stuff  (hope you don't mind)

[chorus]
Em                     D
You were the one thing in my way 
G                      Am
You were the one thing in my way 
Em                     D        Am
You were the one thing in my way 

e|----------------------------------------------------------------|
B|--3-3-------------------------------------3-3-------------------|
G|-------4-4---2-2-2-4---0-0---0-2-4-------------4-4---2-2-0-2h4--|  X2
D|------------------------------------2-0-2-----------------------|
A|----------------------------------------------------------------|
E|----------------------------------------------------------------|

[post-Chorus]

 Em  D     G             Am
My way... Oh way oh way oh way
   Em  D     Am
My way... Oh way oh way oh way

e|---0---0-0-----------------------------0---0-0-------------------------------|
B|------------3-3---3-----------------------------3-3---3----------------------|  X6
G|---------------------0---0-0---5-5-5-4-------------------2---2-2--2-2-2-4----|    
D|-----------------------------------------------------------------------------|
A|-----------------------------------------------------------------------------|
E|-----------------------------------------------------------------------------|

                                        OR

The open notes on the "e" string can also be played on the "B" string, 5th fret:

e|---------------------------------------------------------------------------------|
B|---5---5-5---3-3---3---------------------5---5-5---3-3---3-----------------------|  X6
G|----------------------0---0-0---5-5-5-4---------------------2---2-2--2-2-2-4-----|    
D|---------------------------------------------------------------------------------|
A|---------------------------------------------------------------------------------|
E|---------------------------------------------------------------------------------|




Suggest correction
Give kudos to tab author, rate the tab!
1 2 3 4 5
comments
print report bad tab
2 comments total.
0 reply
asdfghjkrwdsfgh 10 Nov 24, 2016 02:08 AM

didn't like this contribution

0 reply
asdfghjkrwdsfgh 10 Nov 24, 2016 02:08 AM

didn't like this contribution

guest
You may want to rate the tab now too:
select rating
Wanna post a correction for this tab? Suggest correction