Oops, an error
Loading. Please wait.

Well Be Coming Back Tab

version 3
version 3

Whole song

Interactive

478 views 1 this week
1 commentread comment
1 2 3 4 5
please rate
add to favorites
launch autoscroll
font size
0
reset
how to read this tab
guitar tuner
Autoscroll
slow
fast
+/-
esc
set tempo
stop
Help us to improve Ultimate-Guitar.com Take our survey!
×
Author
Intro+verse
E|-----------------------------------------------------------------------|
B|-----------------------------------------------------------------------|
G|-----------------------------------------------------------------------|
D|----5------------------4-------9-----------------------7---------------|
A|--3------------------2-------7------------------------5----------------|
E|-----------------------------------------------------------------------|
Just do one hit on each note and have a big gap between 3/5 and 2/4  also 7/9 and 5/7 
and a shorter gap between 2/4 and 7/9 also 5/7 and 3/5

Chorus+riff
E|-----------3-------------5---------------7----------8-7-5------------|
B|---1-3-5--------3-5-7---------5-7-8-------5-8------------------------|
G|---------------------------------------------------------------------|
D|---------------------------------------------------------------------|
A|---------------------------------------------------------------------|
E|---------------------------------------------------------------------|
Suggest correction
Give kudos to tab author, rate the tab!
1 2 3 4 5
comments
print report bad tab
1 comment total.
0 reply
BrendanSte 51 wrote on August 28 2015, 05:13 am

At the start, try
E|-------3-
B|-1-3-5---

guest
You may want to rate the tab now too:
select rating
Please do not post tabs as comments. Select "correction" instead!