Oops, an error
Loading. Please wait.

Camelogue Tab

395 views 1 this week
no commentswrite comment
1 2 3 4 5
excellent!
x 5
add to favorites
launch autoscroll
font size
0
reset
how to read this tab
guitar tuner
Tab Pro tools
  • play this tab
  • loop segment
  • change instrument
  • show fretboard
  • metronome
Autoscroll
slow
fast
+/-
esc
set tempo
stop
Contributor
Difficulty
intermediate
                                          Artist - Camel
                                         ****************
                                         Song - Camelogue
                                        ******************
                                       Album - Single Factor
                                      ***********************
INTRO
******
 Dm               Bb        C
[-------1-0-1----|---------|---------]
[-----3----------|-------3-|-------1-]
[---2--------0-2-|-----3---|-----0---]X4
[-0--------------|---3-----|---2-----]
[----------------|-1-------|-3-------]
[----------------|---------|---------]

----------------------------------
SOLO
*****
00:04
[--h------------|-b----------h-p----------|--------------|--------]
[-5-6-5----s----|-8-8-6-5-5---6-5------h--|--------------|--------]
[-------5-7\9-7-|-----------------7-5-5-7-|--h------h----|-5h-----]
[---------------|-------------------------|-5-7-5--5-7---|-5-7--5-]
[---------------|-------------------------|------------5-|--------]
[---------------|-------------------------|--------------|--------]

----------------------------------
VERSES
*******
Standing at the crosswalk            Wonder which direction to go
 Dm               Bb        C         Dm        C         C        Bb
[-------1-0-1----|---------|---------|-------1-|---------|--------|------]
[-----3----------|-------3-|-------1-|-----3---|-------1-|------8-|----6-]
[---2--------0-2-|-----3---|-----0---|---2-----|-----0---|-----9--|---7--]
[-0--------------|---3-----|---2-----|-0-------|---2-----|---10---|--8---]
[----------------|-1-------|-3-------|---------|-3-------|-10-----|-8----]
[----------------|---------|---------|---------|---------|--------|------]

Listen to the smalltalk              Claiming how they told me so
 Dm               Bb        C         Dm        C          C    C       
[-------1-0-1----|---------|---------|-------1-|---------|---|--8-]
[-----3----------|-------3-|-------1-|-----3---|-------1-|-1-|--8-]
[---2--------0-2-|-----3---|-----0---|---2-----|-----0---|-0-|--9-]
[-0--------------|---3-----|---2-----|-0-------|---2-----|-2-|-10-]
[----------------|-1-------|-3-------|---------|-3-------|-3-|-10-]
[----------------|---------|---------|---------|---------|---|----]

----------------------------------

CHORUS
*******
  I    im     pro  vise     have to keep going   For the song and the road 
 Dm                Am        C         Dm        Bb        C                               
[-------1-------1-|-------0-|---------|-------1-|---------|-------0-----]
[-----3-------3---|-----1---|-------1-|-----3---|-------3-|---------1---]
[---2-------2-----|---2-----|-----0---|---2-----|-----3---|-----0-----2-]
[-3-------0-------|-2-------|---2-----|-0-------|---3-----|---2---------]
[-----------------|---------|-3-------|---------|-1-------|-3-----------]
[-----------------|---------|---------|---------|---------|-------------]
 
A     lonely     rise,       now I'm   relying  On a song of my own, my own
 Dm                Am        C         Dm        Bb        C                               
[-------1-------1-|-------0-|---------|-------1-|---------|-------0-]
[-----3-------3---|-----1---|-------1-|-----3---|-------3-|---------]
[---2-------2-----|---2-----|-----0---|---2-----|-----3---|-----0---]
[-3-------0-------|-2-------|---2-----|-0-------|---3-----|---2-----]
[-----------------|---------|-3-------|---------|-1-------|-3-------]
[-----------------|---------|---------|---------|---------|---------]


----------------------------------
----------------------------------
Above Is the Picking parts and how to play them,
Just do the picking throughout the song.
Below is the full song.
----------------------------------
----------------------------------
VERSE 1
********
Dm                        Bb  C
Standing at the crosswalk
Dm
Wonder which direction to go       [--h--------]                                               
                                   [-5-6-5---s-]                                                 
Listen to the smalltalk            [--------5\-]                                              
                                   [-----------]                                              
Claiming how they told me so       [-----------]                                              
                                   [-----------]
----------------------------------
CHORUS
*******                        Play through chorus
I improvise have to keep going[----------------|---------------------]
                              [----------------|---------------------]
For the song and the road     [----------------|---------------------]
                              [-3----------3---|-3----------3-----s--]
A lonely rise, now I'm relying[---5---3--5---3-|---5---3--5---3--3\5-]
                              [-----5----------|-----5---------------]
On a song of my own, my own

----------------------------------
Dm Bb C
01:03
[--h------p----|-5-----p------------]
[-5-6-8--6-5---|---8--6-5-----------]
[------------7-|----------7---h-----]
[--------------|-------------5-7--s-]
[--------------|-----------------5\-]
[--------------|--------------------]

----------------------------------
VERSE 2
********
Early on detected                                
                                    PH PH PH                   
Trouble had divided in two        [---------------]                       
                                  [-10-11-10----s-]                   
Acting unaffected                 [-----------10\-]                          
                                  [---------------]                
Reflecting on the things I do     [---------------]                                        
                                  [---------------]
----------------------------------
CHORUS
*******                               
A solo rise, have to keep going     [----------------|---------------------]           
                                    [----------------|---------------------]         
For the song and the road           [----------------|---------------------]
                                    [-3----------3---|-3----------3-----s--]          
Temptation sighs, leave us a memory [---5---3--5---3-|---5---3--5---3--3\5-]
                                    [-----5----------|-----5---------------]
We've loved and known                                              

----------------------------------
SOLO                                b
*****                              PH    p       PH  p
[-------------p------------------|-13--13-10-12--12---10-----rb---]
[-10-11-10--11-10-----s--------b-|-----------------------13--13~~-]
[-----------------12--\10--10~~--|--------------------------------]
[--------------------------------|--------------------------------]
[--------------------------------|--------------------------------]
[--------------------------------|--------------------------------]


[---p-----p---------------10------------------|------------------]
[-13-10-11-10------h----b----13--b----p-------|------------------]
[-------------12-10-12-12-------12--12-10--10-|---p--------------]
[---------------------------------------------|-12-10---s----h---]
[---------------------------------------------|-------12\10-8-10-]
[---------------------------------------------|------------------]


[--------------------]
[--------------------]
[---------h---10---s-]
[---s---10-12----12\-]
[-10\12--------------]
[--------------------]


----------------------------------
C
Fighting the lead
      Dm C  Bb
I was so confused
        Am  Bb
Feeling so accused

----------------------------------
CHORUS
*******
A solo rise, have to keep going     [----------------|---------------------]
                                    [----------------|---------------------]
For the song and the road           [----------------|---------------------]
                                    [-3----------3---|-3----------3-----s--]
Temptation sighs, leave us a memory [---5---3--5---3-|---5---3--5---3--3\5-]
                                    [-----5----------|-----5---------------]
We've loved and known, what can I do
                                                               

----------------------------------
SOLO - Dm Bb C
***************
02:47
 Scratch 
 With Pleck
       PH                                       b 
[------15-----------|----------10----------|-12--12-10----10-13-12-10------]
[----------13-11-10-|---p----b----13-11-10-|------------13------------10-12]
[-------------------|-12-10-12-------------|-------------------------------]
[---X---------------|----------------------|-------------------------------]
[--X----------------|----------------------|-------------------------------]
[-X-----------------|----------------------|-------------------------------]


[---p--------p---------|----10---------------------------------------------]
[-11-10----11-10-------|--b----13--br~-p--------------------------------s--]
[-------12-------12-10-|-12-------12----10-----------------------h---10-\--]
[----------------------|-------------------12--10---s------s---10-12-------]
[----------------------|--------------------------12\10--10\12-------------]
[----------------------|---------------------------------------------------]


[----PH--------------------------|------------|---------|---------------]
[--b---p----h--------------------|-10---------|---p-----|-10-13-13--11--]
[-12-12-10-9-10-9------------h---|----12-9-10-|-10-9----|---------------]
[-----------------12-10----10-12-|------------|------12-|---------------]
[-----------------------12-------|------------|---------|---------------]
[--------------------------------|------------|---------|---------------]

03:11                                  Start Fading Out        PH
[---h--p---------p--------p--------------------------------------------]
[-10-11-10-----11-10----11-10------h----h----------h----b---13--br-----]
[----------12--------12-------12-10-12-9-10----9-10-12-12------12--10--]
[-------------------------------------------12-------------------------]
[----------------------------------------------------------------------]
[----------------------------------------------------------------------]

03:16
   b    p  s      p
[-15--15-13\12--13-12-----b--15--b----h--------brb---p------|-13-12-----bs-]
[---------------------15-15-----15--13-15-13--15---15-13-15-|-------13-13\-]
[-----------------------------------------------------------|--------------]
[-----------------------------------------------------------|--------------]
[-----------------------------------------------------------|--------------]
[-----------------------------------------------------------|--------------]


   brp
[-12--10----|---p-----p----h------|---h------10----|-------------------]
[--------10-|-13-10-11-10-8-10-10-|-10-11-------13-|-13-11-10----10----]
[-----------|---------------------|-------12-------|----------12----10-]
[-----------|---------------------|----------------|-------------------]
[-----------|---------------------|----------------|-------------------]
[-----------|---------------------|----------------|-------------------]


[--------------------------------]
[--------------------------------]
[-----------------------------10-]
[-12-10------s------------s------]
[-------12-12\10-8---s--10\12----]
[------------------10\-----------]


A Cool Camel Song. Enjoy..................
comments
print report bad tab
I want to post or [tab]
guest
You may want to rate the tab now too:
select rating
Please do not post tabs as comments. Select "correction" instead!