Oops, an error
Loading. Please wait.

Mystic Queen bass

version 1
version 1

Whole song

Interactive

by Camel
1,483 views 3 this week
1 commentread comment
1 2 3 4 5
2 more votes to show rating
add to favorites
×
Save as Personal and add changes to this tab that will be seen only by you. Learn more ›
×
You can save this tab as Personal to edit and correct it or add notes. All changes will be seen only by you. Learn more »
launch autoscroll
font size
0
reset
guitar tuner
edit
Autoscroll
slow
fast
+/-
esc
set tempo
stop
Difficulty
Camel – Mystic Queen

Intro (2keer herhalen)

G ---777-5-7--------------------------------|
D --------7--------------121212-10-12-------|
A 5-------------------------------12--------|
E ---------------------10-------------------|

Verse (2keer herhalen)

G ----------------------------------------------|
D ----------------------------------------------|
A 5-5-1-1-----    5-3-1-111---------------------|
E  ---------5-5--------------555----------------|

Bridge(6 keer herhalen)

G --------------------------------------------|
D --------------------------------------------|
A ---------3-333-3----------------------------|
E 3-333-3-------------------------------------|

Einde Bridge

G ----------------------------------------------|
D --757575757575--------------------------------|
A --------------------5-------------------------|
E  ---------------------------------------------|

Verse/Solo

G-----------------------------------------------|
D ----------------3-1-----1---3-5-3-3-----------|
A 555-333-------------3------------5------------|
E ----------555---------------------------------|

Bridge (2keer herhalen)

G ---777-5-7------------------------------------|
D --------7--------------121212-10-12-----------|
A 5-------------------------------12------------|
E ---------------------10-----------------------|

Verse (2keer herhalen)

G -----------------------------------------------|
D -----------------------------------------------|
A 5-5-1-1-------5-3-1-111------------------------|
E ---------5-5--------------555------------------|

Questions? Please mail: Peter_Dibbets@hotmail.com

            
            
Suggest correction
Creating personal tab
Creating personal tab
You can edit any tab online and save it as your Personal.

You can edit, replace or remove any tab part or add personal notes – all changes will be seen only by you.

Personal tabs can be accessed anytime from any device, even offline.
Learn more »
Give kudos to tab author, rate the tab!
1 2 3 4 5
comments
print report bad tab
1 comment total.
0 reply
RHCPras 10 May 14, 2013 09:50 AM

nice tabs

guest
Wanna post a correction for this tab? Suggest correction