Oops, an error
Loading. Please wait.

Selva Tab

277 views 6 this week
no commentswrite comment
1 2 3 4 5
excellent!
x 7
add to favorites
launch autoscroll
font size
0
reset
how to read this tab
guitar tuner
Tab Pro tools
  • play this tab
  • loop segment
  • change instrument
  • show fretboard
  • metronome
×
Best way to learn
"Selva"
Autoscroll
slow
fast
+/-
esc
set tempo
stop
Contributor
Difficulty
novice
                                          Artist - Camel
                                         ****************
                                           Song - Selva
                                          **************
                                       Album - Single Factor
                                      ***********************
                                        Tabbed By - Ayreon77
                                       **********************




This 1st part of the tab is the picking acoustic guitar, 
and below it is the guitar solo.
-----------------------------------------------------------
 Dm                                     solo comes in on the 4th   
[---------------------------------------------------------------------]
[----------6----------------6----------------6--------------6---------]
[-------7-----7-----------7----7----------7-----7---------7----7------]
[-----7----------7-----7---------7-----7----------7----7---------7----]
[--5----------------5---------------5---------------5--------------5--]
[---------------------------------------------------------------------]X6

 Bb
[--------------------------------------]
[-----------6-----------------6--------]
[--------------7-----------------7-----]
[--------8-------8----------8-------8--]
[-----8------------------8-------------]
[--6------------------6----------------]X2


-----------------------------------------------------------
Dm Bb    Dm Bb    Dm Bb  
-----------------------------------------------------------  

 Dm2                          C2
[----------------------------|-----------------------------]
[--------6------------6------|--------3-------------3------]
[------7---5--------7---5----|------5---5---------5---5----]
[----7-------7----7-------7--|----5-------5-----5-------5--]
[--5------------5------------|--3-------------3------------]
[----------------------------|-----------------------------]

 G#                               Fm
[--------------------------------|--------1--------------1------]
[---------4---------------4------|----------1--------------1----]
[-----------5---------------5----|------------1--------------1--]
[------6------6--------6------6--|------3--------------3--------]
[----6---------------6-----------|----3--------------3----------]
[--4---------------4-------------|--1--------------1------------]


-----------------------------------------------------------
Dm Bb    Dm Bb    Dm Bb    Dm Bb
-----------------------------------------------------------

Heavy Sounding Guitar solo
***************************
Dm2 C2 G# Fm    Dm2 C2 G# Fm

-----------------------------------------------------------
Dm Bb    Dm Bb    Dm Bb    Dm Bb   Dm Play Dm and fade out
                                      ********************
-----------------------------------------------------------
-----------------------------------------------------------
Guitar Solo
************
00:09
[-------------------|-------------------------|---------------------]
[--b----------------|--b--18--16-15-----------|--b-----18-----------]
[-17--17--15-14--15-|-17------------17--15-15-|-17--17----15-14--15-]
[-------------------|-------------------------|---------------------]
[-------------------|-------------------------|---------------------]
[-------------------|-------------------------|---------------------]

00:35
[-------------------------|-------------|--------------------|----------]
[--b--18--16-15-----------|-------------|----s-------s-------|----------]
[-17------------17--15-15-|-14----faint-|-14-\12---12\7-7--8-|-10-12-10-]
[-------------------------|----15--12---|--------------------|----------]
[-------------------------|-------------|--------------------|----------]
[-------------------------|-------------|--------------------|----------]

01:00                                               01:18
[-------------|----------------|----------|--s-----|-------------------]
[-------------|-----s----------|----------|-6\8----|--b----------------]
[-12-10-faint-|-8-10\12-12--12-|-10-8-7-8-|-----10-|-17--17--15-14--15-]
[--------12---|----------------|----------|--------|-------------------]
[-------------|----------------|----------|--------|-------------------]
[-------------|----------------|----------|--------|-------------------]

01:27
[----------b-|---------------------------------|----------------------]
[--b--18--18-|-18-16-15-----b-----18-----------|--b--18--16-15--------]
[-17---------|----------17-17--17----15-14--15-|-17------------17--15-]
[------------|---------------------------------|----------------------]
[------------|---------------------------------|----------------------]
[------------|---------------------------------|----------------------]

01:53
Heavier Sounding Guitar
[---------------------|-----3----------------------b---|-------------------]
[-b---------b-r-b-r-b-|-b-----3-6-b--------b-r-b---3---|------b-----b-r-b-r]
[-5-----3-5-3---------|-5---------5-3-5--3-5---------5-|--3-5-3-----3------]
[-----5---------------|--------------------------------|5-------5-3--------]
[---------------------|--------------------------------|-------------------]
[---------------------|--------------------------------|-------------------]

                                                         
02:14  p            b         p                           
[---6-8-6------p--|-8---6-8-10-6-----s-|----------|------]
[-8-------8--8--6-|--------------6-8-\-|-b-3--3-3-|--s---]
[-----------------|--------------------|-5--------|-8\10-]
[-----------------|--------------------|----------|------]
[-----------------|--------------------|----------|------]
[-----------------|--------------------|----------|------]

 Use Vol
[---------------------|-------------------------------|--br-----------]
[--b------------------|-----------18--16-15-----------|-18--16-15-----]
[-17--17-15-14--15-15-|-19-17-19------------17--15-15-|-----------17--]
[---------------------|-------------------------------|---------------]
[---------------------|-------------------------------|---------------]
[---------------------|-------------------------------|---------------]

02:49
[--------------|----------br-----------------|-------------------|-rb-------]
[-18-----------|--b--18--18--16-15-----------|----18-15-16-----b-|-22-20-22-]
[----15-14--15-|-17-----------------17-15-14-|-------------17-17-|----------]
[--------------|-----------------------------|-17----------------|----------]
[--------------|-----------------------------|-------------------|----------]
[--------------|-----------------------------|-------------------|----------]

03:14
[-------------------------]
[-15-18-------------------]
[--------15-14--12--------]
[-------------------15-12-]
[-------------------------]
[-------------------------]

A short easy Camel song to play. Enjoy playing it..............
comments
print report bad tab
I want to post or [tab]
guest
You may want to rate the tab now too:
select rating
Please do not post tabs as comments. Select "correction" instead!