Oops, an error
Loading. Please wait.

Vopos bass

by Camel
124 views 1 this week
no commentswrite comment
1 2 3 4 5
x 4
add to favorites
×
Save as Personal and add changes to this tab that will be seen only by you. Learn more ›
×
You can save this tab as Personal to edit and correct it or add notes. All changes will be seen only by you. Learn more »
launch autoscroll
font size
0
reset
guitar tuner
edit
Autoscroll
slow
fast
+/-
esc
set tempo
stop
Author
Difficulty
--------------------------------------------------------------------------
                                          Artist - Camel
                                         ****************
                                           Song - Vopos    
                                          **************
                                    Album - Stationary Traveler 
                                   *****************************
                                        Tabbed By - Ayreon77
                                       **********************
--------------------------------------------------------------------------
Tuning = Standard             


No Bass At Beginning.


01:04
G|---------------|
D|----s----------|
A|-5-5\------1-1-|
E|-------1-1-----|X8


-------------------
01:21
VERSE 1
********
They woke you in the night, a glare from bright headlights
G|---------------|---------------|---------------|---------------|
D|----s----------|----s----------|----s----------|----s----------|
A|-5-5\------1-1-|-5-5\------1-1-|-5-5\------1-1-|-5-5\------1-1-|
E|-------1-1-----|-------1-1-----|-------1-1-----|-------1-1-----|

Sentry's in a row, you watched them from a front window
G|---------------|---------------|---------------|---------------|
D|----s----------|----s----------|----s----------|----s----------|
A|-5-5\------1-1-|-5-5\------1-1-|-5-5\------1-1-|-5-5\------1-1-|
E|-------1-1-----|-------1-1-----|-------1-1-----|-------1-1-----|

Through sleepy eyes you saw the scene, and felt as if a dream, had come to life.
G|----------|----------|---------|----------|----------|
D|----------|----------|---------|----------|----------|
A|-3-3--0---|-1-1--1-1-|-3-3-0---|-1-1--1-1-|-1-1--1-1-|
E|--------3-|----------|-------3-|----------|----------|


-------------------
01:49
BREAK
******
G|---------------|
D|----s----------|
A|-5-5\------1-1-|
E|-------1-1-----|X4


-------------------
01:58
VERSE 2
********
Caught by surprise, protection in disguise.
G|---------------|---------------|---------------|---------------|
D|----s----------|----s----------|----s----------|----s----------|
A|-5-5\------1-1-|-5-5\------1-1-|-5-5\------1-1-|-5-5\------1-1-|
E|-------1-1-----|-------1-1-----|-------1-1-----|-------1-1-----|

A high barricade, the price too high to pay.
G|---------------|---------------|---------------|---------------|
D|----s----------|----s----------|----s----------|----s----------|
A|-5-5\------1-1-|-5-5\------1-1-|-5-5\------1-1-|-5-5\------1-1-|
E|-------1-1-----|-------1-1-----|-------1-1-----|-------1-1-----|

The late-night dancers filled the street, and stopped as if a dream, had come to life
G|----------|----------|---------|----------|----------|
D|----------|----------|---------|----------|----------|
A|-3-3--0---|-1-1--1-1-|-3-3-0---|-1-1--1-1-|-1-1--1-1-|
E|--------3-|----------|-------3-|----------|----------|


-------------------
01:49
BREAK             Heavy Chords come in on the 5th one.
******
G|---------------|
D|----s----------|
A|-5-5\------1-1-|
E|-------1-1-----|X12


-------------------
02:52
VERSE 3
********
A wail and a cry, blue lights flashing by
G|---------------|---------------|---------------|---------------|
D|----s----------|----s----------|----s----------|----s----------|
A|-5-5\------1-1-|-5-5\------1-1-|-5-5\------1-1-|-5-5\------1-1-|
E|-------1-1-----|-------1-1-----|-------1-1-----|-------1-1-----|

In shadows of the trees, a zone runs in between.
G|---------------|---------------|---------------|---------------|
D|----s----------|----s----------|----s----------|----s----------|
A|-5-5\------1-1-|-5-5\------1-1-|-5-5\------1-1-|-5-5\------1-1-|
E|-------1-1-----|-------1-1-----|-------1-1-----|-------1-1-----|

The young-boy soldiers filled the streets, and moved as if a dream, had come to life.
G|----------|----------|---------|----------|----------|
D|----------|----------|---------|----------|----------|
A|-3-3--0---|-1-1--1-1-|-3-3-0---|-1-1--1-1-|-1-1--1-1-|
E|--------3-|----------|-------3-|----------|----------|


-------------------
03:23
CHORUS
*******
        Can it be a nightmare       Will you wake and still be there
G|-----|-----|---------------|-----|-----|-----|---------------|
D|-----|-----|---------------|-----|-----|-----|---------------|
A|-5-5-|-5-5-|-5--1--------5-|-5-5-|-5-5-|-5-5-|-5--1--------5-|
E|-----|-----|-------3--5----|-----|-----|-----|-------3--5----|

So you try to run,
G|-----|----------------|-----------------|
D|-----|----------------|-----------------|
A|-5-5-|--s----s-s------|-----s----s----3-|
E|-----|-1\3--5\6\-3--0-|-0--3\5--5\6-----|


-------------------
03:50
SOLO 1
*******
G|---------------|
D|----s----------|
A|-5-5\------1-1-|
E|-------1-1-----|X12


-------------------
04:16
CHORUS
*******
        Can it be a nightmare       Will you wake and still be there
G|-----|-----|---------------|-----|-----|-----|---------------|
D|-----|-----|---------------|-----|-----|-----|---------------|
A|-5-5-|-5-5-|-5--1--------5-|-5-5-|-5-5-|-5-5-|-5--1--------5-|
E|-----|-----|-------3--5----|-----|-----|-----|-------3--5----|

So you try to run,
G|-----|----------------|-----------------|
D|-----|----------------|-----------------|
A|-5-5-|--s----s-s------|-----s----s----3-|
E|-----|-1\3--5\6\-3--0-|-0--3\5--5\6-----|


-------------------
04:45
SOLO 2
*******
G|---------------|
D|----s----------|
A|-5-5\------1-1-|Continually play this
E|-------1-1-----|        And fade out.......



ENJOY.......
Suggest correction
Creating personal tab
Creating personal tab
You can edit any tab online and save it as your Personal.

You can edit, replace or remove any tab part or add personal notes – all changes will be seen only by you.

Personal tabs can be accessed anytime from any device, even offline.
Learn more »
comments
print report bad tab
guest
You may want to rate the tab now too:
select rating
Wanna post a correction for this tab? Suggest correction