Oops, an error
Loading. Please wait.

Palabras De Papel tab

version 3
version 3

Whole song

by Camela
55 views 1 this week
no commentswrite comment
1 2 3 4 5
3 more votes to show rating
add to favorites
×
Save as Personal and add changes to this tab that will be seen only by you. Learn more ›
×
You can save this tab as Personal to edit and correct it or add notes. All changes will be seen only by you. Learn more »
launch autoscroll
font size
0
reset
how to read this tab
guitar tuner
edit
Autoscroll
slow
fast
+/-
esc
set tempo
stop
Hola a todos, esta cancion es preciosa, de
los primeros discos de camela, echando mano
de la memoria diría que yo la oi hace unos
10 o 12 años p´al que le pueda interesar.
Yo la toco en compás de rumbas, un compás
por acorde y todo el rato igual, con cejila
en el tercer traste, tambien decir que el
2º, 4º, 6º y 8º acorde si quereis no los
toqueis, son de paso, pero entonces tocar
dos compases por acorde. Hasta luego

Intro:
Las notas que van entre paréntesis no hace
falta que las toqueis, y si las tocais no
las marqueis mucho. El guión bajo __ son
ligados.

      (DO)                                 (LAm)
E ---0-------------0--0-------------0-1----0-----------0--0--0-
B ---1 ----1--3---1--1---1--3--1-----------1-----1--3--1--1--1-
G ---0-------------------------------------2-------------------
D----2-------------------------------------2-------------------
A----3-------------------------------------0-------------------
E---0--------------------------------------0---


E ---3--3--3-3___1--1-1___0--0--0--------------1--(0)--------
B ----------------------------------3-3--1--0----------
G-------------------------------------------------------------


(esto que sigue se repite)

E ----------------0--1--0--1--0-(3)--3__1-1__0--0--------------
B --1--1--1--3----------------------------------------3-3-1-0--
G -------------------------------------------------------------


E --3-3__1-1__0--1--3--1--3--1-----0----0---1---------------
B -------------------------------3----3--------3-3-1-0--
G ----------------------------------------------------------

(después de la segunda vez empezamos con los
acordes)


(DO)           (DO7 )
Quiero que tu vuelvas,

             (LAm)          (¿?)
que vuelvas conmigo tu otra vez

              (FA)           (FAm)
que sigas los pasos que seguiste

              (SOL)      (SOL7)
es que yo sin ti no viviré.

Quiero que recuerdes
lo que juntos pasamos tu y yo
No comprendo porque tu me dejas
se que volara tu corazón

Con unas palabras de papel,
Lloro en el silencio soñare,
Que vuelvas conmigo alguna vez,
Sin tus besos yo me moriré.

????????????????????????????????.

(...y todas las estrofas igual...)

????????????????????????????????
El acorde de la interrogante (¿?) es
un LAm, metiendo el meñique en la 1ª
cuerda, traste 3.
El SOL y SOL7 los toco en suforma con ceja en el traste 3.

            
            
Suggest correction
Creating personal tab
Creating personal tab
You can edit any tab online and save it as your Personal.

You can edit, replace or remove any tab part or add personal notes – all changes will be seen only by you.

Personal tabs can be accessed anytime from any device, even offline.
Learn more »
Give kudos to tab author, rate the tab!
1 2 3 4 5
comments
print report bad tab
guest
Wanna post a correction for this tab? Suggest correction