Oops, an error
Loading. Please wait.

Way Back Home chords

46 views 1 this week
no commentswrite comment
1 2 3 4 5
3 more votes to show rating
add to favorites
×
Save as Personal and add changes to this tab that will be seen only by you. Learn more ›
×
You can save this tab as Personal to edit and correct it or add notes. All changes will be seen only by you. Learn more »
launch autoscroll
font size
0
reset
transpose
0
reset
display chords
guitar tuner
edit
Autoscroll
slow
fast
+/-
esc
set tempo
stop
Strumming
There is no strumming pattern for this song yet. and get +5 IQ
Time: 4/4
Key: A


Way Back Home 


[Intro]


e|-5------------------------|-5--------------------------|
B|-5------------------------|-5--------------------------|
G|-6--x3---6-6-6-6---4------|-6--x3---6-6-6-6------------|
D|-7--------------------7---|-7-----------------4-6-7----| 
A|-7------------------------|-7--------------------------| x2
E|-5------------------------|-5--------------------------|


[Verse 1]

F#m         G#m                 A
You saw me look for my way back home
F#m         G#m                 A
and I got lost, so I'm here to stay
F#m             G#m                        A  
The thought of leaving always chills my bones
F#m               G#m             A
Now come back and haunt me someday

[Chorus]

      F#m      C#m     D         A
And if I could only turn back time
     F#m        G#m     A
the clock's not on my side
     F#m      C#m     D         A
And if I could only change your mind
  F#m        G#m     A
time's not on my side


[Break] 
 
e|-5------------------------|-5--------------------------|
B|-5------------------------|-5--------------------------|
G|-6--x3---6-6-6-6---4------|-6--x3---6-6-6-6------------|
D|-7--------------------7---|-7-----------------4-6-7----| 
A|-7------------------------|-7--------------------------| x2
E|-5------------------------|-5--------------------------|


[Verse 2]

F#m         G#m                    A
You saw me looking for my way back home
F#m            G#m          A
my heart starts racing halfway
F#m         G#m                    A
and half my heart must be made of stone
F#m               G#m              A
leave it behind and let it slip away


[Chorus]

      F#m      C#m     D         A
And if I could only turn back time
     F#m        G#m     A
the clock's not on my side
     F#m      C#m     D         A
And if I could only change your mind
  F#m        G#m     A
time's not on my side

[Break]

e|-5------------------------|-5--------------------------|
B|-5------------------------|-5--------------------------|
G|-6--x3---6-6-6-6---4------|-6--x3---6-6-6-6------------|
D|-7--------------------7---|-7-----------------4-6-7----| 
A|-7------------------------|-7--------------------------| x2
E|-5------------------------|-5--------------------------|


[Chorus]

      F#m      C#m     D         A
And if I could only turn back time
     F#m        G#m     A
the clock's not on my side
     F#m      C#m     D         A
And if I could only change your mind
  F#m        G#m     A
time's not on my side 

            
            
Suggest correction
Creating personal tab
Creating personal tab
You can edit any tab online and save it as your Personal.

You can edit, replace or remove any tab part or add personal notes – all changes will be seen only by you.

Personal tabs can be accessed anytime from any device, even offline.
Learn more »
Give kudos to tab author, rate the tab!
1 2 3 4 5
comments
print report bad tab
guest
You may want to rate the tab now too:
select rating
Wanna post a correction for this tab? Suggest correction