Oops, an error
Loading. Please wait.

Dance With Me chords

199 views 15 this week
no commentswrite comment
1 2 3 4 5
3 more votes to show rating
add to favorites
×
Save as Personal and add changes to this tab that will be seen only by you. Learn more ›
×
You can save this tab as Personal to edit and correct it or add notes. All changes will be seen only by you. Learn more »
launch autoscroll
font size
0
reset
transpose
0
reset
simplify chords
display chords
guitar tuner
edit
Autoscroll
slow
fast
+/-
esc
set tempo
stop
Strumming
There is no strumming pattern for this song yet. and get +5 IQ
CAMERON AVERY - DANCE WITH ME

album version - RIPE DREAMS, PIPE DREAMS
__________________________________
__________________________________
Tuned down a whole step and drop D
C-G-C-F-A-D
__________________________________
__________________________________

[CHORDS]
   E  A5 D5  E5  Esus4    D  Bm  A  C#m C#sus2 Gmaj7  Em  Dmaj7
d|-0----------------------2--2-------4----4-----3/2----0----5---|
a|-0----------------------3--3---2---5----4-----3------0----7---|
f|-1-------------1-2-1----3--4---2---6----6-----4------0----6---|
c|-2--2--0---2------------0--4---2---6----6-----5------2----7---|
g|-2--0--0---2---------2--0--2---0---4----4------------2----5---|
c|-2-----0---2------------0-------------------------------------|
_________________________________________


[INTRO]
d|------------------|
a|------------------|
f|------------------|
c|------------------|x4
g|-2--2-2--2--------|
c|-------------2--2-|


[VERSE ONE]
E5
Dance with me, answer me 
              A5             D5 E5
With a sonnet of your sorrow
            Esus4
Take my hand
                       Esus4
'Cause I'll be your man
      A5                  D5 E5
We'll never have to borrow
   Bm                       A
Or steal or starve, no it's not that hard
            E             Esus4    
If you just dance with me


[VERSE TWO]
             Esus4     
Walk with me
             Esus4     
Talk with me
                   D      D5 E5 Esus4
I'm only flesh and marrow
    Bm                        A
I'm just a call away, and I'm just a plane by day
            E
If you just dance with me
      Bm                                    A
These lips ain't just for talking and these boots ain't just for walking
          E              Esus4   
Won't you dance with me?


[BRIDGE]
C#m
Walk me around the room
       C#sus2
It's a way to do away with all
  Gmaj7
Tomorrow's pending doom
                         Em                   
I'm not half as drunk as you first thought 
   A
So hold me close and I'll just rock you
   E5  Esus4      E     Dmaj7
Back,         and forth
            E             Esus4     
If you just dance with me


[INSTRUMENTAL]
   E                    D                             E
d|--------------------|-----------------------------|-----------------------------------------|
a|-----5------9-------|-10-----10/12-10--10-9-7---7-|-9--------12-14--------------------------|
f|--------------------|-------------------------9---|-------------16b-16-13-------------------|
c|-4/6----6/9----9/12-|-----12----------------------|---9--/14--------------16-14-14/16----14-|
g|--------------------|-----------------------------|-----------------------------------16----|
c|--------------------|-----------------------------|-----------------------------------------|


[VERSE THREE]
    E             Esus4     
Oh, dance with me
          Esus4     
Answer me
                D            E
Take a fleeting chance on me
         Bm                      A
We ain't getting any younger, so let me dip and spin you
          E
Won't you dance with me? 
           Bm                            A
Aren't you tired of my gawking, and I've not the time for talking
          E
Won't you dance with me?
      Bm                                    A
These lips ain't just for talking and these boots ain't just for walking
          E
Won't you dance with me?
     Bm                             A
Sure I'm a lonely fool, and I ain't that cool, but I'll walk you through it, 
E
Dance with me
Suggest correction
Creating personal tab
Creating personal tab
You can edit any tab online and save it as your Personal.

You can edit, replace or remove any tab part or add personal notes – all changes will be seen only by you.

Personal tabs can be accessed anytime from any device, even offline.
Learn more »
Give kudos to tab author, rate the tab!
1 2 3 4 5
comments
print report bad tab
guest
You may want to rate the tab now too:
select rating
Wanna post a correction for this tab? Suggest correction