Oops, an error
Loading. Please wait.

Mientes tab

version 3
version 3

Whole song

  • This version is adapted to Electric guitars, using... Show more
by Camila
106 views 9 this week
no commentswrite comment
1 2 3 4 5
3 more votes to show rating
add to favorites
×
Save as Personal and add changes to this tab that will be seen only by you. Learn more ›
×
You can save this tab as Personal to edit and correct it or add notes. All changes will be seen only by you. Learn more »
launch autoscroll
font size
0
reset
how to read this tab
guitar tuner
edit
Autoscroll
slow
fast
+/-
esc
set tempo
stop
About this tab version
This version is adapted to Electric guitars, using Capo and Half-Step Tuning or even Standard. Was this info helpful? Yes No
Song: Mientes
Artist: Camila
Tuning: Standard for Acoustic and Half-step down for Electric
Capo: 2nd fret for Acoustic and 3rd fret for Electric.
Tabbed by: Javier Ballesteros
Contact: jballesterosf74@gmail.com

Chords if you are not using the Capo for Standard tuning.

G# - F#
F# - E

I prefer to use Capo at 3rd Fret in Electric guitars, because is easier to do the Slide at Chorus
but Of course you can play with a Capo at 2nd fret as the Acoustic using Standard tuning.

I played as the Camila's guitarrist (with capo at 2nd fret Original song), but when I tabbed this, I was 
using the Half-step down Tuning and I don't wanna tune my guitar to Standard so I use a capo at 3rd fret.

Intro and Verse I: for Acoustic guitar. 

       F#                         E
e|----------2----------------------------------|
b|-------0---------0---------------------------|
G|----3--------3----------------1--------------|
D|----4-------------------------2-----(2)------|
A|----4-------------------------2--------------|
E|------------------------------------(0)------|

       F#                         E
e|----------2----------------------------------|
b|-------0---------0---------------------------|
G|----3--------3----------------1--------------|
D|----4-------------------------2-----(2)------|
A|----4-------------------------2--------------|
E|------------------------------------(0)------|

       F#                         E
e|----------2-------------------------------------------------|   |              |
b|-------0---------0------------------------------------------|   |              |
G|----3--------3----------------1------------1/3--------3/4---| <-|  ONLY INTRO  |
D|----4-------------------------2------------2/4----4---4/6---| <-|              |
A|----4-------------------------2--------2--------------------| <-|              |
E|------------------------------------------------------------|   |              |


Pre-Chorus: for Acoustic and Electric guitar, if you are not playing with the Capo, use F#5 (standard tuning)

      E
e|----------------------------------------------------------|
b|----------------------------------------------------------|
g|---1-1-1-1-1-1-1-1-1-1-1----------------------------------|
D|---2-2-2-2-2-2-2-2-2-2-2--2-2-2-2-2-2---2/0---------------|
A|---2-2-2-2-2-2-2-2-2-2-2--2-2-2-2-2-2---2/0---------------|
E|---0-0-0-0-0-0-0-0-0-0-0--0-0-0-0-0-0---0-----------------|
    /----Palm Mutting----/


Chorus: 
e|---------------------|----------------------------------|---------------------------|
b|----------------5/7--|--------------------2h4-----------|------------------5/7------|
G|----------5----------|---------------5-------------(5)--|-----------5---------------|
D|----2/4--------------|-----2/4--------------------------|----2/4--------------------|
A|---------------------|----------------------------------|---------------------------|
E|---------------------|----------------------------------|---------------------------|

                                                                   
e|-----------------5------------|----------------------|------------------------------------|
b|---------------------6--------|----------------5/7---|------------------2h4---------------|
G|-----------5-------------5/---|-----------5----------|-----------5------------------------|
D|---2/4------------------------|----2/4---------------|-----2/4-------------------5~~/0----|
A|------------------------------|----------------------|------------------------------------|
E|------------------------------|----------------------|------------------------------------|

Verse II
                                           (no eres la persona que pensé)
e|---------------------------------------------------------------|
b|---------------------------------------------------------------|
G|---------------------------------------------------------------|
D|------------------7~/------------------------------6~/8/-------|
A|-------7/9--------------------7/9~--/6~/-----------------------|
E|---------------------------------------------------------------|

Pre-Chorus:

      E
e|----------------------------------------------------------|
b|----------------------------------------------------------|
g|---1-1-1-1-1-1-1-1-1-1-1----------------------------------|
D|---2-2-2-2-2-2-2-2-2-2-2--2-2-2-2-2-2---2/0---------------|
A|---2-2-2-2-2-2-2-2-2-2-2--2-2-2-2-2-2---2/0---------------|
E|---0-0-0-0-0-0-0-0-0-0-0--0-0-0-0-0-0---0-----------------|
    /----Palm Mutting----/

Chorus

Chorus: 
e|---------------------|----------------------------------|---------------------------|
b|----------------5/7--|--------------------2h4-----------|------------------5/7------|
G|----------5----------|---------------5-------------(5)--|-----------5---------------|
D|----2/4--------------|-----2/4--------------------------|----2/4--------------------|
A|---------------------|----------------------------------|---------------------------|
E|---------------------|----------------------------------|---------------------------|

                                                                   
e|-----------------5------------|----------------------|------------------------------------|
b|---------------------6--------|----------------5/7---|------------------2h4---------------|
G|-----------5-------------5/---|-----------5----------|-----------5------------------------|
D|---2/4------------------------|----2/4---------------|-----2/4-------------------5~~/0----|
A|------------------------------|----------------------|------------------------------------|
E|------------------------------|----------------------|------------------------------------|

Solo: It's actually no hard to play, just practice and stay alert.

e|---//16~~~~~----(16h18p)-----------------------|
b|--------------------------16b-16~--14/16--11/--|
g|-----------------------------------------------|
D|-----------------------------------------------|
A|-----------------------------------------------|
E|-----------------------------------------------|

e|-----------15---------------------------------------------------|
b|------14--16b--16bp14----14----15-------------------------------|
g|----15-----------------15----15------15--15/17--17/19--19/21----|
D|----------------------------------------------------------------|
A|----------------------------------------------------------------|
E|----------------------------------------------------------------|

Ending for Electric guitar

e|-------------------------------|
b|-------------------------------|
G|-------------------------------|
D|--8-8-8/11-11/12-12/15-15/0----|
A|-------------------------------|
E|-------------------------------|


Ending for Acoustic or another Electric guitar.
      E
e|--------------------------|
b|--------------------------|
g|---1-1-1-1-1-1-1-1-1-1-1--|
D|---2-2-2-2-2-2-2-2-2-2-2--|
A|---2-2-2-2-2-2-2-2-2-2-2--|
E|---0-0-0-0-0-0-0-0-0-0-0--|
/----Crescendo and then STOP play----/

--------------------------------------------------------------------------------------

I think just the riff (Electric) of Ending is not accurate, but all the other tabs are 97% accurate.


********

~ = vibrato
/ = slide
h = hammer-on
Suggest correction
Creating personal tab
Creating personal tab
You can edit any tab online and save it as your Personal.

You can edit, replace or remove any tab part or add personal notes – all changes will be seen only by you.

Personal tabs can be accessed anytime from any device, even offline.
Learn more »
Give kudos to tab author, rate the tab!
1 2 3 4 5
comments
print report bad tab
guest
You may want to rate the tab now too:
select rating
Wanna post a correction for this tab? Suggest correction