Oops, an error
Loading. Please wait.

Todo Cambio tab

version 4
version 4

Whole song

  • This version has the correct riffs for each part, ... Show more
  • Mi version poco simplificada de Camila,Todo Cambio.

Interactive

by Camila
106 views 1 this week
no commentswrite comment
1 2 3 4 5
3 more votes to show rating
add to favorites
×
Save as Personal and add changes to this tab that will be seen only by you. Learn more ›
×
You can save this tab as Personal to edit and correct it or add notes. All changes will be seen only by you. Learn more »
launch autoscroll
font size
0
reset
how to read this tab
guitar tuner
edit
Autoscroll
slow
fast
+/-
esc
set tempo
stop
Author
About this tab version
Mi version poco simplificada de Camila,Todo Cambio. Was this info helpful? Yes No
[Intro]

e|----------------------------------------------------------------|
B|----------------------------------------------------------------|
G|---------------------------10h12---13r12~----14r12--10h12~------|
D|--------10-10h12------10h12-------------------------------------|
A|--11h12----------12~--------------------------------------------|
E|----------------------------------------------------------------|

e|----------------------------------------------------------------------------|
B|-------------------------------13/15\13--13--13--10-------------------------|
G|--------10h12--13r12p10-12b13--12/14\12--14--12--10--10~--10-10h12----------|
D|--10h12------------------------------------------------------------11~------|
A|----------------------------------------------------------------------------|
E|----------------------------------------------------------------------------|


[Verse 1]

Oh no no no....                         
e|-------------------------------------x-13\---------------------------------------|
B|-------------------------x-10\-------x-13\----x-10-11-13----x-11-----------------|
G|--10/12\10----10---------x-10\----------------x-10-------10--------10-10h12-10~--|
D|--10/12\10----10---------x-10\---------------------------------------------------|
A|-----------12----10\8~-----------------------------------------------------------|
E|---------------------------------------------------------------------------------|

El universo escribio......           Y fue tan facil.....
e|------------x-13\----------------------------------------------------------------|
B|--x-10\-----x-13\------------------------------------10\---------10\-------------|
G|--x-10\--------------------10-12---------------------10\---------10\-------------|
D|---------------------10/12--------11~----------10/12--------10/12----------------|
A|---------------------------------------------------------------------------------|
E|---------------------------------------------------------------------------------|

Algo que no.....                                  Fue perderte...
e|-------------------------------------------------------------------------------------------------|
B|---/11p10-----------------------------/10----------------------------------------13--13--13\\\---|
G|----------10-10-12--12/14-------------/10-9---------10~----10~------10~-----10---12--12--12\\\---|
D|--------------------------10/12\10~~--------10--8/10---8/10----10/12---10/12---------------------|
A|-------------------------------------------------------------------------------------------------|
E|-------------------------------------------------------------------------------------------------|


[Chorus]

Antes que pase mas...
e|---------------------------------------------------------------|
B|--------10------10------10-10---13/15\12--13--13--10-----------|
G|--------10------10------10-10---12/14\13--14--12--10-----------|
D|--10/12----10/12---10/12---------------------------------------|
A|---------------------------------------------------------------|
E|---------------------------------------------------------------|

Antes que te hablen.....
e|---------------------------------------------------------------|
B|--------10------10-----------10------------/13-11-10-----------|
G|--------10------10------10h12-------10h12------------10--------|
D|--10/12----10/12---10h12-------10h12---------------------12~---|
A|---------------------------------------------------------------|
E|---------------------------------------------------------------|

Y no hay....
e|----------------------------------------------------------|
B|--------10------10------10-----10-----10--10--13~---------|
G|--------10------10------10-----10-----10--10--12~---------|
D|--10/12----10/12---10/12--10/12--10/12--------------------|
A|----------------------------------------------------------|
E|----------------------------------------------------------|


[Verse 2]

                         Me sorprendio....
e|-------------------------------------x-13\-----------13h15------------------|
B|-------------------------x-10\-------x-13\----x-10\--------13--15-----------|
G|--10/12\10----10---------x-10\----------------x-10\----------------10--10~--|
D|--10/12\10----10---------x-10\----------------------------------------------|
A|-----------12----10\8~------------------------------------------------------|
E|----------------------------------------------------------------------------|
De blanco a negro.....                      Se que no es facil....    
e|----------------------------------------------------------------------------|
B|--x-10\---x-10\\\---------------------------------------10\-----------------|
G|--x-10\---x-10\\\----------10-10h12------------------10-10\-------10~-------|
D|---------------------10/12---------11~----------10h12--------10h12----------|
A|----------------------------------------------------------------------------|
E|----------------------------------------------------------------------------|
Yo tampoco lo.....           Pero asi es...                      
e|----------------8/10------8-------8-------8--------8----------------------------------------|
B|--------------------------------------------------------------------------------------------|
G|---------------------10~------10------10-------10------------10------10-------13-13-13\\\---|
D|--------------------------------------------------------10/12---10/12----12---12-12-12\\\---|
A|--------------------------------------------------------------------------------------------|
E|--------------------------------------------------------------------------------------------|


[Chorus]

Antes que pase mas...
e|---------------------------------------------------------------|
B|--------10------10------10-10---13/15\12--13--13--10-----------|
G|--------10------10------10-10---12/14\13--14--12--10-----------|
D|--10/12----10/12---10/12---------------------------------------|
A|---------------------------------------------------------------|
E|---------------------------------------------------------------|

Antes que te hablen.....
e|---------------------------------------------------------------|
B|--------10------10-----------10------------/13-11-10-----------|
G|--------10------10------10h12-------10h12------------10--------|
D|--10/12----10/12---10h12-------10h12---------------------12~---|
A|---------------------------------------------------------------|
E|---------------------------------------------------------------|

Y no hay....
e|----------------------------------------------------------|
B|--------10------10------10-----10-----10--10--13~---------|
G|--------10------10------10-----10-----10--10--12~---------|
D|--10/12----10/12---10/12--10/12--10/12--------------------|
A|----------------------------------------------------------|
E|----------------------------------------------------------|


[Outro]

                        Todo cambio...
e|------------------------------|
B|------------------------------|
G|------------------------------|
D|-----10/12--------------------|
A|-----------10-10-10/12~-------|
E|------------------------------|



************************************

| x  Dead note
| h  Hammer-on
| p  Pull-off
| r  Release
| b  Bend
| /  Slide up
| \  Slide down
| ~  Vibrato

************************************

            
            
Suggest correction
Creating personal tab
Creating personal tab
You can edit any tab online and save it as your Personal.

You can edit, replace or remove any tab part or add personal notes – all changes will be seen only by you.

Personal tabs can be accessed anytime from any device, even offline.
Learn more »
Give kudos to tab author, rate the tab!
1 2 3 4 5
comments
print report bad tab
guest
You may want to rate the tab now too:
select rating
Wanna post a correction for this tab? Suggest correction