Oops, an error
Loading. Please wait.

Yo Quiero Tab

8,595 views 3 this week
1 commentread comment
1 2 3 4 5
excellent!
x 8
add to favorites
launch autoscroll
font size
0
reset
how to read this tab
guitar tuner
Autoscroll
slow
fast
+/-
esc
set tempo
stop
Help us to improve Ultimate-Guitar.com Take our survey!
×
Author
Yo quiero

INTRO: X2
  Fm7          A#m            Fm      Fm7
e--------------------------------------------------------|
B----4-1-------2-----2-1---------------4-1---------------|
G---1---1-----3-----3---1-----1-1-----1---1--------------|
D--3---------3-----3---------3-------3-------------------|
A-3---------1-----1---------3-------3--------------------|
E--------------------------------------------------------|

   A#m        C

e--------------------------|
B-----2-1---1-1-1-1-1------|
G----3---1--0-0-0-0-0------|
D---3-------2-2-2-2-2------|
A--1--------3-3-3-3-3------|
E--------------------------|

 Fm7          A#m            Fm
E-----------------------------------------|
A-3---------1-----1---------3-------------|
D--3---------3-----3-----1---3------------|
G---1---1-----3-----3---1-----1-1---------|
B----4-1-------2-----2--------------------|
e-----------------------------------------|
Fue un dia comùn y corriente, el dia en que me sali a caminar
entre la gente

E--------------------------------------------------------|
A-----------------------3-------------1------------------|
D------------------------3-------------3-----------------|
G-------------------------1---1---------3---1------------|
B--------------------------4-1-----------2-1-------------|
e--------------------------------------------------------|
 sin saber lo que el destino me estaba preparando

E--------------------------------------------------------|
A-1--------------3---------3--------3--------------------|
D--3--------------3---------3--------3------3------------|
G---3---1----------1-1-------1-1------1-----3------------|
B----2-1-------------------------------4-1--2------------|
e--------------------------------------------------------|
 una sorpresa ya me estaba esperando, poco despues pase por

E--------------------------------------------------------|
A--------------------------------------------------------|
D------------------------------------3-------------------|
G--------------------------2/3--3--1---------------------|
B--------------------------1/2--2------------------------|
e--------------------------------------------------------|
 donde hacian cafè, como no tenia mas que hacer pregunte

E--------------------------------------------------------|
A---------------------------------3----------------------|
D----------------------------------3---------------------|
G-----------------------------------1---1----------------|
B-------------------------(12)-------4-1-----------------|
e--------------------------------------------------------|
 que si, que si para este flaco habia una mesa

E---------1-----------------------------------------------|
A-1-------3-----------------------------------------------|
D--3------3-----------------------------------------------|
G---3-----1-----------------------------------------------|
B----2-1--1-----------------------------------------------|
e---------1-----------------------------------------------|
 y fue asi que me atendio esa belleza.


Fm7     A#m   C7  Fm     Fm7         A#m      C7
no imaginaba nada màs, que llevarla lejos de aqui
          (te juro que yo)
Fm    A#m     C7      Fm     Fm7    A#m        C7
no podia siquiera hablar, del amor que al verla senti


coro:
 Fm/Fm7                   A#m
yo quie-ero, yo quie-ero, yo quie-ero
            (tus besos)
    C                       Fm
yo quie-ero, yo quie-ero, yo quie-ero
         (tus encantos)
   Fm                     A#m
yo quie-ero, yo quie-ero, yo quie-ero
            (tu miel)
    C              Fm
o mamacita ven y dame tu miel

PUENTE
oooooooooooooooooooo Fm A#m  C  Fm   x3


Fm                   A#m
al otro dia sucedio lo siguiente
    C                Fm
desperte temprano me senti diferente
                        A#m
no supe la razon de esa mañana tan bella
        c                    Fm
hasta que vi que amanecia con ella


no imaginaba............. se repite

coro:

 Fm/Fm7                   A#m
yo quie-ero, yo quie-ero, yo quie-ero
            (tus ojos)
    C                       Fm
yo quie-ero, yo quie-ero, yo quie-ero
         (tus caderas)
   Fm                     A#m
yo quie-ero, yo quie-ero, yo quie-ero
            (tu piel)
    C              Fm
o mamacita y tus besos tambièn

 Fm          A#m       C         Fm
"yo quiero contigo, morena te lo pido"  x3
Suggest correction
comments
print report bad tab
1 comment total.
0 reply
A.O.D.619 10 wrote on January 19 2010, 01:18 pm

use a capo in the first fret if your playin on an acoustic it sounds alot better

guest
You may want to rate the tab now too:
select rating
Please do not post tabs as comments. Select "correction" instead!