Oops, an error
Loading. Please wait.

Cosas Que No Se Rompen tab

99 views 1 this week
no commentswrite comment
1 2 3 4 5
3 more votes to show rating
add to favorites
×
Save as Personal and add changes to this tab that will be seen only by you. Learn more ›
×
You can save this tab as Personal to edit and correct it or add notes. All changes will be seen only by you. Learn more »
launch autoscroll
font size
0
reset
how to read this tab
guitar tuner
edit
Autoscroll
slow
fast
+/-
esc
set tempo
stop
Hola, soy nuevo aqui asi que me presento con mi primer aporte.
Llevo tiempo  siguiendo las canciones de Camila y no encontraba un tab
para esta canción así que viendo sus videos y escuchando la canción
logre dar con la forma exacta en que Camila toca este tema. Ojala les sirva.

(A)

E--------------0---------
B---------10-------10----
G-------0-------------0--  x2
D--------------10--------
A----10------------------
E------------------------

(B)

E--------------0---------
B---------10-------10----
G-------0-------------0--  x2
D--------------10--------
A----9------------------
E------------------------


Hay casas que no se caen,
Hay suelos que no resbalan,
Hay desiertos que se aman,
porque se muestran las palmas

(A)
Hay dichas que no se hablan,
(B)
Hay carnes que no se tocan,
(A)
Hay pieles que por la espalda,
(B)
se desangran en pasiones.
(Rasgueo de A y B)
Ahhhhhh

Aquí comienza otro rasgueo...
(Rasgueo A)

e|---------------------------||---------------------------||
B|--10----8----7----5----5---||--10----8----7----5----5---||
G|---x----x----x----x----x---||---x----x----x----x----x---||
D|--10----9----7----4----5---||--10----9----7----4----5---||
A|---------------------------||---------------------------||
E|---------------------------||---------------------------||


Porque me basta el instante,
pa' ser despertar profundo,
Porque aquí todos los nudos,
se desatan con canciones.


Solo 1

e|------------------------------------------------------------
B|--10---10-----13---13---13-----10---10---10-----8---8---8---
G|---x----x------x----x----x------x----x----x-----x---x---x---
D|--10---10-----14---14---14-----10---10---10-----9---9---9---
A|------------------------------------------------------------
E|------------------------------------------------------------

---------------------------------------------------||
--7---7---7---7---7------5---5---5------5---5---5--||
--x---x---x---x---x------x---x---x------x---x---x--||
--7---7---7---7---7------4---4---4------5---5---5--||
---------------------------------------------------||
---------------------------------------------------||

(Rasgueo A más suave)
Hay dichas que no se hablan,
Hay carnes que no se tocan,
Hay pieles que por la espalda,
se desangran en pasiones.


Solo 2

e|----------------------------------------------
B|--10---10-----13---13---13-----10---10---10---
G|---x----x------x----x----x------x----x----x---
D|--10---10-----14---14---14-----10---10---10---
A|----------------------------------------------
E|----------------------------------------------

-----------------------------------------------------------------||
--8---8---8-----10---10-----13---13---13-----15---15---15---15---||
--x---x---x------x----x------x----x----x------x----x----x----x---||
--9---9---9-----10---10-----14---14---14-----16---16---16---16---||
-----------------------------------------------------------------||
-----------------------------------------------------------------||

Porque hay cosas que no se rompen
como mi corazon que ama
Hay cosas que no se rompen
como mi corazon que ama
Ahhhhhh

Lo mismo que el arpegio A solo que con la variación de la cuerda A,
primero al aire (osea 0), luego 10 y luego 9.

E--------------0---------
B---------10-------10----
G-------0-------------0--
D--------------10--------
A-0,10,9-----------------
E------------------------


Porque me basta el instante,
pa' ser despertar profundo,
Porque aquí todos los nudos,
se soplan con las canciones.
Ahhhhhh


Arpegio Final


E------------------------------------------||
B--------0--------------0------------------||
G------0---0----------0---0----------------||
D----7-------7------5-------5--------7-----||
A--0-----------0--0-----------0------0-----||
E------------------------------------------||

            
            
Suggest correction
Creating personal tab
Creating personal tab
You can edit any tab online and save it as your Personal.

You can edit, replace or remove any tab part or add personal notes – all changes will be seen only by you.

Personal tabs can be accessed anytime from any device, even offline.
Learn more »
Give kudos to tab author, rate the tab!
1 2 3 4 5
comments
print report bad tab
guest
Wanna post a correction for this tab? Suggest correction