Oops, an error
Loading. Please wait.

Todo Cambio Bass Tab

1,289 views 3 this week
no commentswrite comment
1 2 3 4 5
3 more votes to show rating
add to favorites
launch autoscroll
font size
0
reset
guitar tuner
Autoscroll
slow
fast
+/-
esc
set tempo
stop
Help us to improve Ultimate-Guitar.com Take our survey!
×
Difficulty
intermediate
INTRO 

G|-------------|----3-----3--|
D|----3-----3--|-------------|
A|-------------|--1----1-----|  
E|--1-----1----|-------------| X4

y fué tan fácil quererte tanto...

G|--------|--------|-----3---|--------|--------|--------|--------|--------|
D|-----5--|-----7--|---------|-----7--|-----5--|--------|--------|--------|
A|--------|--------|--1-1--1-|--------|--------|-3------|-1------|---1-1-1|
E|--3-3---|--5-5---|---------|--5-5---|--3-3---|--------|--------|--------|

Todo temblo...

G|--------|--------|---3-3--|---3-3--|
D|---3-3--|---3-3--|--------|--------|
A|--------|--------|-1------|-1------|
E|-1------|-1------|--------|--------| X2

y fué tan fácil quererte tanto...

G|--------|--------|-----3---|--------|--------|-----5--|----3--|--------|
D|-----5--|-----7--|---------|-----7--|-----5--|--------|-------|--------|
A|--------|--------|--1-1--1-|--------|--------|--3-3---|-1-1---|--3-----|
E|--3-3---|--5-5---|---------|--5-5---|--3-3---|--------|-------|--------|

CORO
Antes que pase mas...

G|----3-3-|--------|--------|--------|----3-3-|--------|--------|----3-3-|
D|--------|----7-7-|----3-3-|----3-3-|--------|----7-7-|----3-3-|--------|
A|-1-1----|--------|--------|--------|-1-1----|--------|--------|-1-1----|
E|--------|-5-5----|-1-1----|-1-1----|--------|-5-5----|-1-1----|--------|
                             Cuando te vi...
G|--------|--------|--------|--------|
D|----5-5-|----7-7-|--------|--------|
A|--------|--------|1-1--1-1|--3-----|
E|-3-3----|-5-5----|--------|--------| 

Me sorprendió..

G|--------|--------|---3-3--|---3-3--|
D|---3-3--|---3-3--|--------|--------|
A|--------|--------|-1------|-1------|
E|-1------|-1------|--------|--------| X2

Se que no es facil..

G|--------|--------|-----3---|--------|--------|-----5--|----3--|--------|
D|-----5--|-----7--|---------|-----7--|-----5--|--------|-------|--------|
A|--------|--------|--1-1--1-|--------|--------|--3-3---|-1-1---|--3-----|
E|--3-3---|--5-5---|---------|--5-5---|--3-3---|--------|-------|--------|

CORO
Antes que pase mas...

G|----3-3-|--------|--------|--------|----3-3-|--------|--------|----3-3-|
D|--------|----7-7-|----3-3-|----3-3-|--------|----7-7-|----3-3-|--------|
A|-1-1----|--------|--------|--------|-1-1----|--------|--------|-1-1----|
E|--------|-5-5----|-1-1----|-1-1----|--------|-5-5----|-1-1----|--------|
                                       
G|--------|--------|--------|--------|
D|----5-5-|----7-7-|--------|--------|
A|--------|--------|1-1--1-1|--3-----|
E|-3-3----|-5-5----|--------|--------| Cuando te vi...



ArturoVMusic - Youtube 
ame_arturo@hotmail.com






Suggest correction
Give kudos to tab author, rate the tab!
1 2 3 4 5
comments
print report bad tab
guest
You may want to rate the tab now too:
select rating
Wanna post a correction for this tab? Suggest correction