Oops, an error
Loading. Please wait.

Doble Filo chords

version 1
version 1

Whole song

33 views 1 this week
no commentswrite comment
1 2 3 4 5
3 more votes to show rating
add to favorites
×
Save as Personal and add changes to this tab that will be seen only by you. Learn more ›
×
You can save this tab as Personal to edit and correct it or add notes. All changes will be seen only by you. Learn more »
launch autoscroll
font size
0
reset
transpose
0
reset
simplify chords
display chords
guitar tuner
edit
Autoscroll
slow
fast
+/-
esc
set tempo
stop
Strumming
There is no strumming pattern for this song yet. and get +5 IQ
Esta cancion es linda me hace acordar a una persona muy especial,
ojala que algun dia sea feliz conmigo.. aqui les dejo los acordes


intro:

Arpegios: Estos arpegios son del intro como de la cancion completa,
          menos el coro

Arpegio
|---------0-----0--------0-----0--------0-----0-------0-----0-----------
|-------0-----0--------0-----0--------0-----0-------0-----0-------------
|-----2-----2--------2-----2--------2-----2-------2-----2---------------
|--0--------------2-----------------------------------------------------
|--------------------------------0--------------4-----------------------
|-----------------------------------------------------------------------


|---------0-----0--------0-----0--------0-----0-------------------------
|-------0-----0--------0-----0--------0-----0---------------------------
|-----2-----2--------2-----2--------2-----2-----------------------------
|--0--------------2--------------0---------------2----------------------
|-----------------------------------------------------------------------
|-----------------------------------------------------------------------


Arpegio
Desde el borde mi cama

Caigo y vuelvo y despertar

Siento como el aire aprieta

Cada vez que quiero hablar


No puedo decirte nada

Que nos pueda lastimar

Porque se que el doble filo

Siempre ataca por detrás


Coro:
           A4
Te quiero amar
  G                           A4
Tengo miedo de cansarme de esperar
  G                          A4
De quererte siempre cada día más
  G                           A4
De sentir que no me puedo controlar

           A4
Te quiero dar
  G                          A4
Más de lo que te puedas imaginar
 G                                 A4
Que estés en mis sueños y en mi realidad
  G
Y tenerte aquí por siempre


Arpegio
Lo supe desde el comienzo

Te lo debo confesar

Equivocarme contigo

Siempre fue mi voluntad


Te quiero decir TE QUIERO

Y besarte de verdad

Pero se que el doble filo

Siempre ataca por detrás

            A4
Te quiero amar
  G                            A4
Tengo miedo de cansarme de esperar
  G                             A4
De quererte siempre cada día más
  G                             A4         G
De sentir que no me puedo controlar ouuwwuooo...

Dadd9             E
Aunque no estás aquí,

Dadd9              E
Yo sigo pensando en ti

Dadd9             E       Dadd9 / G
Pensando en el beso que te dí

          A4
Te quiero dar
G                            A4
Más de lo que te puedas imaginar
G                                  A4
Que estés en mis sueños y en mi realidad
G                                 A4
Y tenerte aquí por siempre... POR SIEMPRE...

Al final se acompaña con el arpegio del intro , termina en A4


   A4
|--0----|
|--2----|
|--2----|
|--0----|
|--0----|
|--0----|

   Dadd9
|--0----|
|--3----|
|--2----|
|--0----|
|--0----|
|--2----|
Suggest correction
Creating personal tab
Creating personal tab
You can edit any tab online and save it as your Personal.

You can edit, replace or remove any tab part or add personal notes – all changes will be seen only by you.

Personal tabs can be accessed anytime from any device, even offline.
Learn more »
Give kudos to tab author, rate the tab!
1 2 3 4 5
comments
print report bad tab
guest
Wanna post a correction for this tab? Suggest correction