Oops, an error
Loading. Please wait.

Melina tab

version 3
version 3

Whole song

185 views 3 this week
no commentswrite comment
1 2 3 4 5
2 more votes to show rating
add to favorites
×
Save as Personal and add changes to this tab that will be seen only by you. Learn more ›
×
You can save this tab as Personal to edit and correct it or add notes. All changes will be seen only by you. Learn more »
launch autoscroll
font size
0
reset
how to read this tab
guitar tuner
edit
Autoscroll
slow
fast
+/-
esc
set tempo
stop
PUES AQUÍ LES TENGO LA CORRECCIÓN DE ESTA CANCIÓN QUE ESTA BIEN CHIDA,
OJALA LES GUSTE Y ESPERO QUE ESTE BIEN.

=INTRO= (x2)
   Dm              Gm            A7                A
E--5-3-----------3-5h6p5-3---3---5-6-5-6-5-6-5-6---9--10-9--10-9----6-5-6--
B------6-5-3-5-6-----------6-----5-6-5-6-5-6-5-6---10-11-10-11-10---8-6-8--
G--------------------------------------------------------------------------
D--------------------------------------------------------------------------
A--------------------------------------------------------------------------
E--------------------------------------------------------------------------


=ESTROFA 1=
 Dm
 ERES FUEGO DE AMOR, LUZ DEL SOL, VOLCÁN Y TIERRA,
                          A7
 POR DONDE PASAS... DEJAS HUELLA...

         A           A7
E--9--10-12-10-9--10-12-10-9----6-5-6--
B--10-11-14-11-10-11-14-11-10---8-6-8--
G--------------------------------------
D--------------------------------------
A--------------------------------------
E--------------------------------------

   Dm       Gm            Dm
 MUJER TÚ NACISTE PARA QUERER,
E-------------------
B--6-8-10-8h10p8-6--
G--7-9-10-9h10p9-7--
D-------------------
A-------------------
E-------------------

       Gm           Dm
 HAS LUCHADO POR VOLVER
E-------------------
B--6-8-10-8h10p8-6--
G--7-9-10-9h10p9-7--
D-------------------
A-------------------
E-------------------

      Gm               A
 A TU TIERRA Y CON TU GENTE...
E------------9----12-------12--------
B-------10-----10----14-------14-----
G-----9----9------------14-------14--
D--11--------------------------------
A------------------------------------
E------------------------------------

=PRECORO=
              Gm
 HAS VUELTO MELINA...
E--3-1-3-1-0-----0------------------
B------------3-3---2-2-2-2-2-2-2-2--
G-----------------------------------
D-----------------------------------
A-----------------------------------
E-----------------------------------

          A            Dm
 ALZA TUS MANOS HACIA DIÓS,
E--3-1-3-1-0-----0------------------
B------------3-3---2-2-2-2-2-2-2-2--
G-----------------------------------
D-----------------------------------
A-----------------------------------
E-----------------------------------

          Gm       A7       A#     A
 QUÉ EL ESCUCHE TU VOZ, LARARAIRARARA...
E----5----3-6-5-----5----3-6-5-5-5-5-5--
B--5---3----------5---3-----------------
G---------------------------------------
D---------------------------------------
A---------------------------------------
E---------------------------------------

              Gm
 HAS VUELTO MELINA...
E--3-1-3-1-0-----0------------------
B------------3-3---2-2-2-2-2-2-2-2--
G-----------------------------------
D-----------------------------------
A-----------------------------------
E-----------------------------------

             A          Dm
 TUS OJOS REFLEJAN EL DOLOR
E--3-1-3-1-0-----0------------------
B------------3-3---2-2-2-2-2-2-2-2--
G-----------------------------------
D-----------------------------------
A-----------------------------------
E-----------------------------------

      A#       A7       Gm     A
 Y TU ALMA EL AMOR, LARARAIRARARA...
E----5----3-6-5-----5----3-6-5-5-5-5-5--
B--5---3----------5---3-----------------
G---------------------------------------
D---------------------------------------
A---------------------------------------
E---------------------------------------

=CORO= NOTA: EL CORO SE ACOMPAÑA CON EL REQUINTO DEL INTRO.

    Dm                       Gm          A7
 LA HUELLA DE TU CANTO HECHO RAÍCES... MELINA
    Dm                     Gm           A7
 Y VUELVEN A REÍR TUS OJOS TRISTES... MELINA
 Dm              Gm   A#  A7
 RARARARARARARARARAIRARARARA...


=ESTROFA 2= NOTA: SE REPITEN LOS REQUINTOS DE LA ESTROFA ANTERIOR
 Dm              Gm         Dm            Gm           Dm
 VIDA... AY TU RAZÓN ES TU PAÍS, DONDE EL MAR SE HIZO GRIS,
           Gm              A
 DONDE EL LLANTO AHORA ES CANTO...

*Se repite =PRECORO=*
*Se repite =CORO=*

 NOTA: TAMBIÉN AQUI SE ACOMPAÑA CON EL REQUINTO DEL INTRO:

 Dm              Gm   A#  A   A7  A
 RARARARARARARARARAIRARARARA... MELINA...
 Dm              Gm   A#  A   A7  A
 RARARARARARARARARAIRARARARA... MELINA...


PUES AQUÍ SE TERMINA MI TAB Y COMO DIJE OJALÁ Y HALLA ESTADO BIEN,
Q LA PASEN CHIDO, VOTEN xD

            
            
Suggest correction
Creating personal tab
Creating personal tab
You can edit any tab online and save it as your Personal.

You can edit, replace or remove any tab part or add personal notes – all changes will be seen only by you.

Personal tabs can be accessed anytime from any device, even offline.
Learn more »
Give kudos to tab author, rate the tab!
1 2 3 4 5
comments
print report bad tab
guest
Wanna post a correction for this tab? Suggest correction