Oops, an error
Loading. Please wait.

Quieres Ser Mi Amante tab

version 2
version 2

Whole song

126 views 1 this week
no commentswrite comment
1 2 3 4 5
3 more votes to show rating
add to favorites
×
Save as Personal and add changes to this tab that will be seen only by you. Learn more ›
×
You can save this tab as Personal to edit and correct it or add notes. All changes will be seen only by you. Learn more »
launch autoscroll
font size
0
reset
how to read this tab
guitar tuner
edit
Autoscroll
slow
fast
+/-
esc
set tempo
stop
Advertencia: Para copiar esta transcripción debes utilizar la fuente
tipográfica: Courier New, así no se te moverán los caordes y punteos
de su original posición


              QUIÉRES SER MI AMANTE
                  Camilo Sesto
      ______________________________________
     |                                      |
     |   Diferencia de 1/2 tono más abajo   |
     |    respecto A LA versión original    |
     |______________________________________|


=INTRO=

   Em                                     B7
E-----------------------------------12--------------
B-----------------------------10-12---12--10--------
G--9-11-12-12-11-9--9-11-12-12----------12---12-11--
D---------------------------------------------------
A---------------------------------------------------
E---------------------------------------------------

   Em                                     B7
E-----------------------------------12--------------
B-----------------------------10-12---12--10--------
G--9-11-12-12-11-9--9-11-12-12----------12---12-11--
D---------------------------------------------------
A---------------------------------------------------
E---------------------------------------------------


=ESTROFA 1,1=
Em
 DECIR TE QUIERO, DECIR AMOR,
              B7
 NO SIGNIFICA NADA,
Em
 LAS PALABRAS SINCERAS, LAS QUE TIENEN VALOR,
                       D
 SON LAS QUE SALEN DEL ALMA...
Am            Em     B7              Em
 Y EN MI ALMA NACEN... SÓLO PALABRAS BLANCAS,
Am                 Em     B7             Em
 PREGUNTAS SIN RESPUESTAS, LLENAS DE ESPERANZA...

=ESTROFA 1,2=
Em
 UN AMOR COMO EL MÍO NO SE PUEDE AHOGAR
                       B7
 COMO UNA PIEDRA EN UN RÍO,
Em
 UN AMOR COMO EL MÍO NO SE PUEDE ACABAR,
                        D
 NI ESTANDO LEJOS TE OLVIDO...
Am                Em   B7                     Em
 Y NO SE PUEDE QUEMAR... PORQUE ESTÁ HECHO DE FUEGO,
Am              Em   B7                       Em      E
 NI PERDER NI GANAR... PORQUE ESTE AMOR NO ES JUEGO...

=CORO=
  C          D    G        C          D     G
 SUEÑOS QUE SON AMOR, SON SUEÑOS QUE SON DOLOR...
   C       D      G     Am          D       B7
 Y YO NECESITO SABER... SI QUIERES SER MI AMANTE...

=ESTROFA 2,1=
Em                                      B7
 ES BONITO REÍR, AMAR Y VIVIR, TODO POR ALGUIEN,
Em                                             D
 SI ES PRECISO SUFRIR Y LLORAR O MORIR POR ESE ALGUIEN.
Am             Em B7                  Em
 YO NECESITO SABER SI QUIERES SER MI AMANTE,
Am          Em    B7                  Em      E
 NECESITO SABER... SI QUIERES SER MI AMANTE...


*Se repite Coro*


=PUENTE= (instrumental)

   Em                                     B7
E-----------------------------------12--------------
B-----------------------------10-12---12--10--------
G--9-11-12-12-11-9--9-11-12-12----------12---12-11--
D---------------------------------------------------
A---------------------------------------------------
E---------------------------------------------------

   Em                                          D
E----------------------------------------12--------------
B-0--------------------------------10-12---12--10--------
G--9----9-11-12-12-11-9--9-11-12-12----------12---12-11--
D--------------------------------------------------------
A--------------------------------------------------------
E--------------------------------------------------------

 Am          Em   B7           Em    Am      Em  B7         Em   E
E--8-8-8-10-8-7-----------------------8-8-9-8-7------------------
B------------------7-7-7-7-8-10-7------------------7-7-7-8-7-7---
G---------------------------------9---------------------------9--
D----------------------------------------------------------------
A----------------------------------------------------------------
E----------------------------------------------------------------

*Se repite CORO*

=FINAL=
Em                                        B7
 O VIVIR O MORIR, O VIVIR O MORIR PERO CONTIGO...
Em                                                  D
 O VIVIR O MORIR, O VIVIR O MORIR ¿QUIERES SER MI AMANTE?...

(En esta parte de la canción debes tocar la guitarra más
 despacio y bajando cada vez más el volumen de tu voz)

Em                                        B7
 O VIVIR O MORIR, O VIVIR O MORIR PERO CONTIGO...
Em                                                  D
 O VIVIR O MORIR, O VIVIR O MORIR ¿QUIERES SER MI AMANTE?...

-------------------------- fin ---------------------------------

Hola, me llamo Rodrigo, soy chileno, soy un cantante aficionado,
si tienes dudas, las que sean sobre esta canción, escríbeme a
 rodrymicky@ y un Saludo pal: Marco, Joc, Aarón, Karen,
Yesleine, Pamela, Maluto, Roerto, KuroChan, Lord Caoz, Chika Denisse,
a mi primo Jonathan (Sweet Revenge), a Jocelyn, a la Laura y a la
Claudita...

       +EN MEMORIA DE MI HERMANITA ANDREA SUSANA MUÑOZ ALARCÓN+
               (*Abril 20,1989 - Diciembre 10,2004+)
          'Que el Señor te tenga en su gloria hermanita mía'

                     'Que el Señor les Bendiga'
Marzo 29, 2005                                 ...El último romántico
==========================

            
            
Suggest correction
Creating personal tab
Creating personal tab
You can edit any tab online and save it as your Personal.

You can edit, replace or remove any tab part or add personal notes – all changes will be seen only by you.

Personal tabs can be accessed anytime from any device, even offline.
Learn more »
Give kudos to tab author, rate the tab!
1 2 3 4 5
comments
print report bad tab
guest
Wanna post a correction for this tab? Suggest correction