Oops, an error
Loading. Please wait.

Done bass

523 views 15 this week
no commentswrite comment
1 2 3 4 5
2 more votes to show rating
add to favorites
×
Save as Personal and add changes to this tab that will be seen only by you. Learn more ›
×
You can save this tab as Personal to edit and correct it or add notes. All changes will be seen only by you. Learn more »
launch autoscroll
font size
0
reset
guitar tuner
edit
Autoscroll
slow
fast
+/-
esc
set tempo
stop
Author
Difficulty
intermediate
About this tab version
Full bass tab. Time notes in tab are referenced to the Official video on Youtube. Was this info helpful? Yes No
[Intro]

G|--------16--16--16--------16--16--16--|-------13--13-13\--11-11-11\-9--9-9-9/|
D|-14--14-------14----16--16------16----|-14--14-------------------------------|
A|--------------------------------------|--------------------------------------|
E|--------------------------------------|--------------------------------------|

G|--------16--16--16--------16--16--16--|-16-13-16-13-11-13-11-9-9---9---9-9/--|
D|-14--14-------14----16--16------16----|--------------------------------------|
A|--------------------------------------|--------------------------------------|
E|--------------------------------------|--------------------------------------|



[Verse]

G|--------16--16--16--------16--16--16--|-13--13--13--13--16-13-16-13--13------|
D|-14--14-------14----16--16------16----|---16--16--16--16-----------16--16-14-|
A|--------------------------------------|--------------------------------------|
E|--------------------------------------|--------------------------------------|

G|--------16--16--16--------16--16--16--|-------13--13-13\--11-11-11\-9--9-9-9/|
D|-14--14-------14----16--16------16----|-14--14-------------------------------|
A|--------------------------------------|--------------------------------------|
E|--------------------------------------|--------------------------------------|

repeated throughout to 1:37



[Chorus]
G|-9--------------|-/13--------13-13--11-11-11--|
D|----------------|-----------------------------|
A|----------------|-----------------------------|
E|----------------|-----------------------------|



[Verse 2]
G|--------------------------13---13-13--------------------|
D|-14---14-14---14---14h16--14---14-14---14h16-14--14-14--|
A|-12---12-12---12----------------------------------------|
E|--------------------------------------------------------|

G|--------------------------------------------|
D|---11---11---11---11----9-----9-----9-------| 
A|--------------------------------------------|
E|-9----9----9----9----7-----7-----7----/9-9--|

repeated throughout to 2:52



[Chorus 2]
G|-9--------------|-/13--------13-13--11-11-11--|
D|----------------|-----------------------------|
A|----------------|-----------------------------|
E|----------------|-----------------------------|



[Verse 3]
   same as earlier
G|--------------------------13---13-13--------------------|
D|-14---14-14---14---14h16--14---14-14---14h16-14--14-14--|
A|-12---12-12---12----------------------------------------|
E|--------------------------------------------------------|

G|--------------------------------------------|
D|---11---11---11---11----9-----9-----9-------| 
A|--------------------------------------------|
E|-9----9----9----9----7-----7-----7----/9-9--|

repeated throughout to 3:55



[Chorus 2]
G|-9--------------|-/13--------13-13--11-11-11--|
D|----------------|-----------------------------|
A|----------------|-----------------------------|
E|----------------|-----------------------------|


   play this part 2x
G|--------------------------13---13-13--------------------|
D|-14---14-14---14---14h16--14---14-14---14h16-14--14-14--|
A|-12---12-12---12----------------------------------------|
E|--------------------------------------------------------|

G|-16-13-16-13---13------16-13-16-13---13------|
D|------------16---16-14------------16---16-14-|
A|---------------------------------------------|
E|---------------------------------------------|

   (4:20)  6 beats
G|---------------------------------------16-13-16-13---13------|
D|-14---14-14---14-14h16-14---14-14---14------------16---16-14-|
A|-------------------------------------------------------------|
E|-------------------------------------------------------------|

G|---------------------------------------------|
D|-14---14-14---14-14h16-14---14-14---14-14h16-|
A|---------------------------------------------|  play line 2x
E|---------------------------------------------|

G|-16-13-16-13---13------16-13-16-13---13------|
D|------------16---16-14------------16---16-14-|
A|---------------------------------------------|
E|---------------------------------------------|



[Outro]

G|---------------------------------------------|
D|-14---14-14---14-14h16-14---14-14---14-14h16-|
A|---------------------------------------------|
E|---------------------------------------------|

G|-16-13-16-13---13------16-13-16-13---13------|
D|------------16---16-14------------16---16-14-|
A|---------------------------------------------|
E|---------------------------------------------|



************************************

| h   Hammer-on
| /   Slide up
| \   Slide down

************************************

            
            
Suggest correction
Creating personal tab
Creating personal tab
You can edit any tab online and save it as your Personal.

You can edit, replace or remove any tab part or add personal notes – all changes will be seen only by you.

Personal tabs can be accessed anytime from any device, even offline.
Learn more »
Give kudos to tab author, rate the tab!
1 2 3 4 5
comments
print report bad tab
guest
You may want to rate the tab now too:
select rating
Wanna post a correction for this tab? Suggest correction