Oops, an error
Loading. Please wait.

Jet Fuel Cant Melt Steel Beams chords

3,646 views 75 this week
no commentswrite comment
1 2 3 4 5
x 8
add to favorites
×
Save as Personal and add changes to this tab that will be seen only by you. Learn more ›
×
You can save this tab as Personal to edit and correct it or add notes. All changes will be seen only by you. Learn more »
launch autoscroll
font size
0
reset
transpose
0
reset
simplify chords
display chords
guitar tuner
edit
Autoscroll
slow
fast
+/-
esc
set tempo
stop
Author
Difficulty
Strumming
There is no strumming pattern for this song yet. and get +5 IQ
[Chords]
E5 x799xx
B x9987x
A x7765x
C#5 x466xx
B5 x244xx
A5 x022xx
E 022100
D#6 x699xx 

[Intro]

      E5               B       A         C#5   B5
e|------------------------------------------------------------------------|
B|---------------------7-7---5--5--5-5-5----------------------------------|
G|---9--9--9-9-9-9-9-9-8-8---6--6--6-6-6-6-6-6-4--4-----------------------|
D|---9--9--9-9-9-9-9-9-9-9---7--7--7-7-7-6-6-6-4--4-----------------------|
A|---7--7--7-7-7-7-7-7-9-9---7--7--7-7-7-4-4-4-2--2-----------------------|
E|-0----------------------------------------------------------------------|
Repeat pattern through verse


[Verse]

E5      B     A     C#5  B5  
I'm not gonna climb
E5               B          A    C#5  B5
A ladder for the rest of my life
E5        B         A    C#5  B5
Said that and stood back
E5                              B     A     C#5  B5
And you walked away before they could react

C#5     B5              A5
Hearing catcalls from police cars
A5            E                          B5                         C#5
And they say "What you gonna do about it dressed the way you are?"
C#5       B5           A
There's a very common lie
A               E                                 B5
They say you're asking for it when you're walking home alone at night


[Chorus]

             E5              D#6     C#5             B5
They say the only thing that stops a bad man with a gun 
     A5              E
is a good man with a gun
            C#5        B5 
The lies they scare in you
    E5              D#6     C#5             B5
The only thing that stops a bad man with a gun 
     A5              E
is a good man with a gun
            C#5         B5   E5
The lies they use to control you


[Instrumental]

      E5               B       A         C#5   B5
e|------------------------------------------------------------------------|
B|---------------------7-7---5--5--5-5-5----------------------------------|
G|---9--9--9-9-9-9-9-9-8-8---6--6--6-6-6-6-6-6-4--4-----------------------|
D|---9--9--9-9-9-9-9-9-9-9---7--7--7-7-7-6-6-6-4--4-----------------------|
A|---7--7--7-7-7-7-7-7-9-9---7--7--7-7-7-4-4-4-2--2-----------------------|
E|-0----------------------------------------------------------------------|


[Verse]

E5              B       A   C#5  
So you turn and walked away
B5     E5                         B         A    C#5  B5
Forgot everything they taught you till that day
E5                  B   A       C#5
And started arguing eloquently
B5    E5                     B          A     C#5  B5
As to whether jet fuel could melt steel beams

C#5     B5              A5
Hearing catcalls from a construction yard
A5           E                               B5
They'll say "Take it as a compliment, they're only being nice"
C#5       B5             A
There's a far too common lie
              E                                   B5
And you carry keys between your knuckles when you walk alone at night


[Chorus]

             E5              D#6     C#5             B5
They say the only thing that stops a bad man with a gun 
     A5              E
is a good man with a gun
              C#5     B5
The lies they sell to you
    E5              D#6     C#5             B5
The only thing that stops a bad man with a gun 
     A5              E
is a good man with a gun
            C#5         B5   E5
The lies they use to control you


[Instrumental]

      E5               B       A         C#5   B5
e|------------------------------------------------------------------------|
B|---------------------7-7---5--5--5-5-5----------------------------------|
G|---9--9--9-9-9-9-9-9-8-8---6--6--6-6-6-6-6-6-4--4-----------------------|
D|---9--9--9-9-9-9-9-9-9-9---7--7--7-7-7-6-6-6-4--4-----------------------|
A|---7--7--7-7-7-7-7-7-9-9---7--7--7-7-7-4-4-4-2--2-----------------------|
E|-0----------------------------------------------------------------------|


[Bridge]

         E5                   D#6                  C#5          B5
It's the trophy wives raising trophy wives raising children on TV
B5        E5                  E
Scared of people like you and me
E               C#5                    B5
Just don't ask questions you'll sleep peacefully
B5      E5            D#6                 C#6         B5
We will not go out in silence and we will not go quietly
B5      E5                    E
Nah jet fuel can't melt steel beams, I've watched enough
C#5        B5
Conspiracy documentaries, yeah


[Chorus]

    E5              D#6     C#5             B5
The only thing that stops a bad man with a gun 
     A5              E
is a good man with a gun
            C#5         B5
The lies they use to control you
E5              D#6     C#5             B5
The only thing that stops a bad man with a gun 
     A5              E
is a good man with a gun
            C#5         B5  E5 B A 
The lies they use to control you 
C#5    B5   E5    B A C#5 B  
Use to control you


[Outro]

      E5               B       A         C#5   B5
e|------------------------------------------------------------------------|
B|---------------------7-7---5--5--5-5-5----------------------------------|
G|---9--9--9-9-9-9-9-9-8-8---6--6--6-6-6-6-6-6-4--4-----------------------|
D|---9--9--9-9-9-9-9-9-9-9---7--7--7-7-7-6-6-6-4--4-----------------------|
A|---7--7--7-7-7-7-7-7-9-9---7--7--7-7-7-4-4-4-2--2-----------------------|
E|-0----------------------------------------------------------------------|

 
Suggest correction
Creating personal tab
Creating personal tab
You can edit any tab online and save it as your Personal.

You can edit, replace or remove any tab part or add personal notes – all changes will be seen only by you.

Personal tabs can be accessed anytime from any device, even offline.
Learn more »
comments
print report bad tab
guest
You may want to rate the tab now too:
select rating
Wanna post a correction for this tab? Suggest correction