Oops, an error
Loading. Please wait.

Jet Fuel Cant Melt Steel Beams tab

1,681 views 21 this week
1 commentread comment
1 2 3 4 5
x 5
add to favorites
×
Save as Personal and add changes to this tab that will be seen only by you. Learn more ›
×
You can save this tab as Personal to edit and correct it or add notes. All changes will be seen only by you. Learn more »
launch autoscroll
font size
0
reset
how to read this tab
guitar tuner
edit
Autoscroll
slow
fast
+/-
esc
set tempo
stop
Author
Difficulty
Tabbed by Modnarandom


[Intro]

e|---------------------------------------------------------------------------|
B|---------------------------------------------------------------------------|
G|---------------------------------------------------------------------------|
D|-9--9--9-9-9--9-9-9-9--8---6--6---6---6---4--4--4-4-4-4--------------------|
A|-7--7--7-7-7--7-7-7-7--6---4--4---4---4---2--2--2-2-2-2--------------------|
E|-0-------------------------------------------------------------------------|x4


[Verse 1]

Just play this with varying rhythmic differences throughout the verses.

e|---------------------------------------------------------------------------|
B|---------------------------------------------------------------------------|
G|---------------------------------------------------------------------------|
D|-9--9--9-9-9--9-9-9-9--8---6--6---6---6---4--4--4-4-4-4--------------------|
A|-7--7--7-7-7--7-7-7-7--6---4--4---4---4---2--2--2-2-2-2--------------------|
E|---------------------------------------------------------------------------|x8


[Chorus 1]

Softer at first, only a slight variation. 

e|---------------------------------------------------------------------------|
B|---------------------------------------------------------------------------|
G|---------------------------------------------------------------------------|
D|-9--9---9-9-9--8--8-8-8-8---6--6---6---6---4--4--4-4-4-4-------------------|
A|-7--7---7-7-7--6--6-6-6-6---4--4---4---4---2--2--2-2-2-2-------------------|
E|---------------------------------------------------------------------------|x4


[Verse 2]

Same as Verse 1.

e|---------------------------------------------------------------------------|
B|---------------------------------------------------------------------------|
G|---------------------------------------------------------------------------|
D|-9--9--9-9-9--9-9-9-9--8---6--6---6---6---4--4--4-4-4-4--------------------|
A|-7--7--7-7-7--7-7-7-7--6---4--4---4---4---2--2--2-2-2-2--------------------|
E|---------------------------------------------------------------------------|x10


[Chorus 2]

Same as Chorus 1.

e|---------------------------------------------------------------------------|
B|---------------------------------------------------------------------------|
G|---------------------------------------------------------------------------|
D|-9--9---9-9-9--8--8-8-8-8---6--6---6---6---4--4--4-4-4-4-------------------|
A|-7--7---7-7-7--6--6-6-6-6---4--4---4---4---2--2--2-2-2-2-------------------|
E|---------------------------------------------------------------------------|x4


[Verse 3]

Same as Verse 1.

e|---------------------------------------------------------------------------|
B|---------------------------------------------------------------------------|
G|---------------------------------------------------------------------------|
D|-9--9--9-9-9--9-9-9-9--8---6--6---6---6---4--4--4-4-4-4--------------------|
A|-7--7--7-7-7--7-7-7-7--6---4--4---4---4---2--2--2-2-2-2--------------------|
E|---------------------------------------------------------------------------|x6


[Chorus 3]

Same as Chorus 1.

e|---------------------------------------------------------------------------|
B|---------------------------------------------------------------------------|
G|---------------------------------------------------------------------------|
D|-9--9---9-9-9--8--8-8-8-8---6--6---6---6---4--4--4-4-4-4-------------------|
A|-7--7---7-7-7--6--6-6-6-6---4--4---4---4---2--2--2-2-2-2-------------------|
E|---------------------------------------------------------------------------|x4


[Outro]

e|---------------------------------------------------------------------------|
B|---------------------------------------------------------------------------|
G|---------------------------------------------------------------------------|
D|-9--9--9-9-9--9-9-9-9--8---6--6---6---6---4--4--4-4-4-4--------------------|
A|-7--7--7-7-7--7-7-7-7--6---4--4---4---4---2--2--2-2-2-2--------------------|
E|-0-------------------------------------------------------------------------|

e|---------------------------------------------------------------------------|
B|---------------------------------------------------------------------------|
G|---------------------------------------------------------------------------|
D|-9--9--9-9-9--9-9-9-9--8---6--6---6---6---4--4--4-4-4------9~--------------|
A|-7--7--7-7-7--7-7-7-7--6---4--4---4---4---2--2--2-2-2------7~--------------|
E|-0-------------------------------------------------------------------------|x4



********************
|~     Vibrato
********************

            
            
Suggest correction
Creating personal tab
Creating personal tab
You can edit any tab online and save it as your Personal.

You can edit, replace or remove any tab part or add personal notes – all changes will be seen only by you.

Personal tabs can be accessed anytime from any device, even offline.
Learn more »
comments
print report bad tab
1 comment total.
0 reply
Ry00n 976 Aug 02, 2016 09:11 PM

The formatting is good but the part of the song that is tabbed out is inaccurate. It doesn't include the whole cord. The other parts of the song aren't tabbed out at all.

guest
You may want to rate the tab now too:
select rating
Wanna post a correction for this tab? Suggest correction