Oops, an error
Loading. Please wait.

Theres No Brian In Team tab

85 views 6 this week
no commentswrite comment
1 2 3 4 5
3 more votes to show rating
add to favorites
×
Save as Personal and add changes to this tab that will be seen only by you. Learn more ›
×
You can save this tab as Personal to edit and correct it or add notes. All changes will be seen only by you. Learn more »
launch autoscroll
font size
0
reset
how to read this tab
guitar tuner
edit
Autoscroll
slow
fast
+/-
esc
set tempo
stop
[Intro]
 d|-----------------------------------------------------------------------------0-0-0-0----------|
 A|---------5-p0-----------------5-p0------------------5-p0---------------------5-5-5-5----------|
F#|-----------------------------------------------------------------------------3-3-3-3----------|
 D|--------------0-h4-p0---------------0-h4-p0---------------0-h4-p0------------0-0-0-0----------|     (x2)
 G|-------0-------------4-p0---0---------------4-p0---0-------------4-p0--------0-0-0-0----------| 
 D|---(0)-----------------------------------------------------------------------5-5-5-5----------|     

 d|-------------------------------------------------------------------------------------|
 A|-------------------------------------------------------------------------------------|
F#|--------------------------------------------------------------0-0-0-0----------------|
 D|----4-4-5-7---7p0-4p0--4-4-5-7---7p0-4p0--4-4-5-7---7p0-4p0---4-4-4-4----------------|
 G|----0---0-0---0--------0---0-0---0--------0---0-0---0---------0-0-0-0----------------|
 D|----2------------------2------------------2-------------------5-5-5-5----------------|
 
 d|----0----0-----------------|
 A|----5----4----5----5-------|
F#|----0----0----0----0-------|
 D|----4----2----4----4-------|    (x4)
 G|----4----2----0----0-------|
 D|--------------5----5-------|     

why do i always run away 
why do i always take the easy way 
i wont go and do that again.

 
 d|-------0----------0----------|
 A|-------5----------4----------|
F#|-------0----------0----------|
 D|-------4----------2----------|    (x4)
 G|-------4----------2----------|
 D|-----------------------------| 

im gonna work hard and do my best.
 

 d|-------------------------------------------------------------------------------------|
 A|---0-0-0-0------------0-0-0-0--------------------------------------------------------|
F#|---5-5-3-0--0-0---0---5-5-3-0--0-0---0---0-0-0-0---0-0---0---0-0-0-0---0-0---0-------|
 D|---0-0-0-0--0-4p0-4---0-0-0-0--0-4p0-4---4-4-5-4---0-4p0-0---4-4-5-4---0-4p--0-------|
 G|---0-0-0-0--0-0---0---0-0-0-0--0-0---0---7-7-7-7---7-7---7---7-7-7-7---7-7---7-------|
 D|-----------------------------------------0-0-0-0---0-0---0---0-0-0-0---0-0---0-------|
    
      ive got to tell you                    the truth

 d|-------------------------------------------------------------------------------------------|
 A|---0-0-0-0------------0-0-0-0--------------------------------------------------------------|
F#|---5-5-3-0--0-0---0---5-5-3-0--0-0---0---0-0-0-0---0-0---0---0-0-0-0---0-0---0------3-3-3--|
 D|---0-0-0-0--0-4p0-4---0-0-0-0--0-4p0-4---4-4-5-4---0-4p0-0---4-4-5-4---0-4p--0------0-0-0--|
 G|---0-0-0-0--0-0---0---0-0-0-0--0-0---0---7-7-7-7---7-7---7---7-7-7-7---7-7---7------0-0-0--|
 D|-----------------------------------------0-0-0-0---0-0---0---0-0-0-0---0-0---0------0-0-0--|

     the time spent with you                is a waste of time. 

 d|-------------------------------------------------------------------------------|
 A|-------------------------------------------------------------------------------|
F#|-------------------------------------------------------------------------------|
 D|-----------5p4p0-h2p0---------5p4p0-h2p0--------5p4p0-h2p0--------0-0-0--------|
 G|--2-/4---0------------h4p0--0-----------h4p0--0------------h4p0---2-4-6--------|
 D|--0--0------------------------------------------------------------0-0-0--------|

 d|------------------------------------------------------------------------|
 A|------------------------------------------------------------------------|
F#|------------------------------------------------------------------------|
 D|----5p4p0-h2p0---------5p4p0-h2p0--------5p4p0-h2p0--------0-0-0--------|
 G|--0------------h4p0--0-----------h4p0--0------------h4p0---2-4-6--------|
 D|-----------------------------------------------------------0-0-0--------|

    ive had                                                   the biggest crush 

 d|------------------------------------------------------------------------|
 A|------------------------------------------------------------------------|
F#|------------------------------------------------------------------------|
 D|----5p4p0-h2p0---------5p4p0-h2p0--------5p4p0-h2p0--------0-0-0--------|
 G|--0------------h4p0--0-----------h4p0--0------------h4p0---2-4-6--------|
 D|-----------------------------------------------------------0-0-0--------|

                                                                   on you 

 d|------------------------------------------------------------------------|
 A|------------------------------------------------------------------------|
F#|------------------------------------------------------------------------|
 D|----5p4p0-h2p0---------5p4p0-h2p0--------5p4p0-h2p0--------0-0-0--------|
 G|--0------------h4p0--0-----------h4p0--0------------h4p0---2-4-6--------|
 D|-----------------------------------------------------------0-0-0--------|

                                                              ever since we first met

 d|------------------------------------------------------------------------|
 A|------------------------------------------------------------------------|
F#|------------------------------------------------------------------------|
 D|----5p4p0-h2p0---------5p4p0-h2p0--------5p4p0-h2p0--------0-0-0--------|   (x3)
 G|--0------------h4p0--0-----------h4p0--0------------h4p0---2-4-6--------|
 D|-----------------------------------------------------------0-0-0--------|

 d|---0--------------------------0------2---------------------------------0-------------|
 A|---0--------------------------5------0---------------------------------0-------------|
F#|---0--------------------------0------0---------------------------------0-------------|
 D|---4--------------------------4------x---------------------------------4-------------|
 G|---0--------------------------4------2---------------------------------0-------------|
 D|---5-------------------------------------------------------------------5-------------|

         and if you think im  a  monster          you're probably right 

 d|------0------2---------------------------------0-------------|
 A|------5------0---------------------------------0-------------|
F#|------0------0---------------------------------5-p3----------|
 D|------4------x---------------------------------0-------------|
 G|------4------2---------------------------------0-------------|
 D|-----------------------------------------------5-------------|

   im just a monster              so run and hide 

  d|------0------2----------------0-----------2------------0-------------|
  A|------5------0----------------5-----------0------------0-------------|
 F#|------0------0----------------0-----------0------------5-p3----------|
  D|------4------x----------------4-----------x------------0-------------|
  G|------4------2----------------4-----------2------------0-------------|
  D|-------------------------------------------------------5-------------|

cus im a disfunctional mess   and i cannot address the truth

 d|------0------2-----0------|
 A|------5------0-----0------|
F#|------0------0-----0-(3)--|
 D|------4------x-----4------|
 G|------4------2-----0------|
 D|-------------------5------|


yeah i was weak when you needed strong 
and i cant see where i belong 
were tryna make things better 
im tryna make things better for her


 d|---------------7---7---------------------7-------------------------0------|
 A|-------------------0---------------------0-------------------------7------|
F#|-------------8-----8---------------------8-------------------------0------|
 D|-----------9-------9---------------------9-------------------------7------|
 G|-------------------x---------------------x-------------------------x------|
 D|---------9---------9---------------------9-------------------------7------|

                        i was wrong about you     i was wrong all along 

 d|--------7------------------7-----------------------------0----------------|
 A|--------0------------------0-----------------------------7----------------|
F#|--------8------------------8-----------------------------0----------------|
 D|--------7------------------9-----------------------------7----------------|
 G|--------x------------------x-----------------------------x----------------|
 D|--------9------------------9-----------------------------7----------------|

yeah i was wrong about you       i was wrong all along 


 d|----7---0---0-----------------------------------------------|
 A|----0---7---5-----------------------------------------------|
F#|----8---0---3-----------------------------------------------|    (x4)
 D|----9---7---5-----------------------------------------------|
 G|----x---x---0-----------------------------------------------|
 D|----9---7---5-----------------------------------------------|

and i just want you to know im gonna fuck up 
and i realize that 
you already know that im a fuck up 
and i realize that 


 d|-----------------------|
 A|-----------------------|
F#|----0--0--0------------|
 D|----4--5--0------------|   (x5)
 G|----0--0--7------------|
 D|----4--5--0------------|

but i cant change 
i cant change 
i cant change 
i cant change..


************************************

| p    Pull-off
| h    Hammer-on
| (n)  Ghost note
| /    Slide up
| x    Dead note
   

************************************

            
            
Suggest correction
Creating personal tab
Creating personal tab
You can edit any tab online and save it as your Personal.

You can edit, replace or remove any tab part or add personal notes – all changes will be seen only by you.

Personal tabs can be accessed anytime from any device, even offline.
Learn more »
Give kudos to tab author, rate the tab!
1 2 3 4 5
comments
print report bad tab
guest
You may want to rate the tab now too:
select rating
Wanna post a correction for this tab? Suggest correction