Oops, an error
Loading. Please wait.

Las Piedras Y El Mar tab

version 1
version 1

Whole song

52 views 1 this week
no commentswrite comment
1 2 3 4 5
3 more votes to show rating
add to favorites
×
Save as Personal and add changes to this tab that will be seen only by you. Learn more ›
×
You can save this tab as Personal to edit and correct it or add notes. All changes will be seen only by you. Learn more »
launch autoscroll
font size
0
reset
how to read this tab
guitar tuner
edit
Autoscroll
slow
fast
+/-
esc
set tempo
stop
INTRO:
DO5//DO5-RE5(X3) SOL5 FA5 DO5 RE5  FA5 DO5 RE5

 FA5   DO5          RE5  FA5       DO5           RE5 FA5   DO5         
Cuando me quiero marchar cuando no tengo a donde ir  Busco la
         RE5 LA#5 LA5   FA5 FA5   DO5    RE5     LA#5        LA5       
tranquilidad  cerca del mar Busco la soledad que siempre en  mi
  FA5 FA5    DO5          RE5 FA5         DO5       RE5   FA5 DO5        
esta. Cuando nadie quiere oír cuando el recuerdo es dolor Prefiero
      RE5       LA#5 LA5   FA5 FA5 DO5      RE5      LA#5 LA5
conversar con el ruido del mar Prefiero abrazar a las piedras.

CORO:
LA5                 RE5 LA5                RE5                LA#5       
Que me van a comprender que me van a despertar y me van a enseñar,  
     DO5      FA5 DO5 RE5     FA5 DO RE5
otra vez. A vivir..       A vivir..

DO5//DO5-RE5 (X3) SOL5 FA5 DO5 RE5 FA5 DO5 RE5 LA5 SOL5 RE5

SOLO:
e-3------------0--0---------5-----------------------8--8--8--8--8-
B--------1-3-1------3h1h3-----8-6-8--6-5-6-5------9--9--9--9--9---
G------2-------------------------------------7--------------------
D----3------------------------------------------------------------
A-----------------------------------------------------------------
E-----------------------------------------------------------------

e-10--17-15-13h12-15--13-12-13-12----
B---------------------------------15-
G------------------------------------
D------------------------------------
A------------------------------------
E------------------------------------
FA5     DO5      RE5 FA5 DO5           RE5 FA5 DO5     RE5 LA#5 LA5  
Ahora quiero escapar alejarme de la ciudad Sentarme a pensar  junto
FA5     FA5 DO5      RE5      LA#5 LA5
al mar. Prefiero abrazar a las piedras.

              FA5 DO5 RE5     FA5 DO RE5
CORO...   A vivir..       A vivir...

DO5//DO5-RE5 (X3)

            
            
Suggest correction
Creating personal tab
Creating personal tab
You can edit any tab online and save it as your Personal.

You can edit, replace or remove any tab part or add personal notes – all changes will be seen only by you.

Personal tabs can be accessed anytime from any device, even offline.
Learn more »
Give kudos to tab author, rate the tab!
1 2 3 4 5
comments
print report bad tab
guest
Wanna post a correction for this tab? Suggest correction