Oops, an error
Loading. Please wait.

Dead Wrong Tab

614 views 6 this week
1 commentread comment
1 2 3 4 5
please rate
add to favorites
launch autoscroll
font size
0
reset
how to read this tab
guitar tuner
Autoscroll
slow
fast
+/-
esc
set tempo
stop
Help us to improve Ultimate-Guitar.com Take our survey!
×
Author
Difficulty
Tuning
intermediate
C G C F A D
intro:

D|-------------------------------|
A|-------------------------------|
F|-------------------------------| x4
C|-------------------------6---3-|
G|--9\0--8\0--9\0--8\0-----------|
C|--9\0--8\0--9\0--8\0-----------|


D|--------------------------------|
A|--------------------------------|
F|--------------------------------| x1
C|--------------------------------|
G|--------------------------------|
C|--9--9--6--9--9--9--5--4--6--3--|


verse 1

D|-----------------------|
A|-----------------------|
F|-----------------------|
C|-----------------------| x2
G|-----9-----9\6---------|
C|-----9-----9\6---------|

D|--------------------------------|
A|--------------------------------|
F|--------------------------------| x2
C|---------12-------------9-------|
G|-----9------------9\6-----------|
C|-----9------------9\6-----------|


Tricky Bit:


D|----------------------------------------------------------|
A|----------------------------------------------------------|
F|----------------------------------------------------------| x2
C|--------12-----9---------------------9-----6--------------|
G|---------------------10-----9--------------------7-----6--|
C|--9--9------9-----9------9-----9--6-----6-----6-----6-----|



verse 1


D|-----------------------|
A|-----------------------|
F|-----------------------|
C|-----------------------| x2
G|-----9-----9\6---------|
C|-----9-----9\6---------|

D|--------------------------------|
A|--------------------------------|
F|--------------------------------| x2
C|---------12-------------9-------|
G|-----9------------9\6-----------|
C|-----9------------9\6-----------|


Tricky Bit:


D|----------------------------------------------------------|
A|----------------------------------------------------------|
F|----------------------------------------------------------| x2
C|--------12-----9---------------------9-----6--------------|
G|---------------------10-----9--------------------7-----6--|
C|--9--9------9-----9------9-----9--6-----6-----6-----6-----|


interlude:

D|-------------------------------|
A|-------------------------------|
F|-------------------------------| x16
C|-------------------------6--3--| 
G|--9\0--9\0--9\0--9\0--9--------|
C|--9\0--9\0--9\0--9\0--9--------|

chorus:

D|--------------------------------|
A|--------------------------------|
F|--------------------------------| x8
C|--------------------------------|
G|--9--9--6--9--9--9--6--4--7--3--|
C|--9--9--6--9--9--9--6--4--7--3--|
                                
that's all, listen to the song to know how it goes, and enjoy \m/ \m/
Suggest correction
Give kudos to tab author, rate the tab!
1 2 3 4 5
comments
print report bad tab
1 comment total.
0 reply
BedOfBlaqkRoses 10 wrote on April 8 2013, 07:47 pm

Awesome! love this song and this tab is 100% perfect! yay!

guest
You may want to rate the tab now too:
select rating
Wanna post a correction for this tab? Suggest correction