Oops, an error
Loading. Please wait.

Smiling Politely Bass Tab

version 1
version 1

Whole song

Interactive

846 views 1 this week
no commentswrite comment
1 2 3 4 5
please rate
add to favorites
launch autoscroll
font size
0
reset
guitar tuner
Autoscroll
slow
fast
+/-
esc
set tempo
stop
Help us to improve Ultimate-Guitar.com Take our survey!
×
Author
Tuning
C G C F A D
Artist - Cancer Bats
Album - Hail Destroyer
Track - Smiling Politely
Tuning - Drop C (CGCF)

Intro
F|---------------------------------|---------------------------------|
C|---------------------------------|---------------------------------|
G|---------------------------------|---------------------------------|
C|---------------------------------|---------------------------------| x2

F|---------------------------------|---------------------------------|
C|---------------------------------|---------------------------------|
G|---------5-----------6-------6---|---------5-----------5---2---6---|
C|-0---0-------0---0-------0-------|-0---0-------0---0---------------| x2

Riff 1
F|---------------------------------|---------------------------------|
C|---------------------------------|---------------------------------|
G|---------5-----------6-------6---|---------5-----------5---2---6---|
C|-0---0-------0---0-------0-------|-0---0-------0---0---------------| x2

F|---------------------------------|---------------------------------|--|
C|---------------------------------|---------------------------------|  |
G|---------5-----------6-------6---|---------5-----------6-------6---|  |
C|-0---0-------0---0-------0-------|-0---0-------0---0-------0-------|  |
                                                                        x3
F|---------------------------------|---------------------------------|  |
C|---------------------------------|---------------------------------|  |
G|---------5-----------6-------6---|---------5-----------5---2---6---|  |
C|-0---0-------0---0-------0-------|-0---0-------0---0---------------|--|

F|---------------------------------|---------------------------------|
C|---------------------------------|---------------------------------|
G|---------5-----------6-----------|---------5-----------5---2---6---|
C|-0---0-------0---0---------------|-0---0-------0---0---------------| x4

Riff 2
F|---------------------------------|---------------------------------|
C|---------------------------------|---------------------------------|
G|-----2---------------------------|---------------------------------|
C|-0-------2---2---2-------2---2---|-0---1---1---1---1-------1---1---|

F|---------------------------------|---------------------------------|
C|---------------------------------|---------------------------------|
G|-----2---------------------------|---------------------3---2---1---|
C|-0-------2---2---2-------2---2---|-0---1---1---0---1---------------|

F|---------------------------------|---------------------------------|
C|---------------------------------|---------------------------------|
G|-----2---------------------------|---------------------------------|
C|-0-------2---2---2-------2---2---|-0---1---1---1---1-------1---1---|

Riff 3
F|---------------------------------|---------------------------------|
C|---------------------------------|---------------------------------|
G|-----3---2---1-------------------|-----3---2---1-------------------|
C|-0---------------0---3---2---1---|-0---------------0---3---2---1---| x2

F|---------------------------------|---------------------------------|
C|---------------------------------|---------------------------------|
G|---------------------------------|---------------------------------|
C|-0-------------------------------|-------------------------0-------|

F|---------------------------------|---------------------------------|
C|---------------------------------|---------------------------------|
G|---------------------------------|---------------------------------|
C|-0-------------------------------|---------------------------------|

Riff 1
F|---------------------------------|---------------------------------|
C|---------------------------------|---------------------------------|
G|---------5-----------6-------6---|---------5-----------5---2---6---|
C|-0---0-------0---0-------0-------|-0---0-------0---0---------------| x2

F|---------------------------------|---------------------------------|--|
C|---------------------------------|---------------------------------|  |
G|---------5-----------6-------6---|---------5-----------6-------6---|  |
C|-0---0-------0---0-------0-------|-0---0-------0---0-------0-------|  |
                                                                        x3
F|---------------------------------|---------------------------------|  |
C|---------------------------------|---------------------------------|  |
G|---------5-----------6-------6---|---------5-----------5---2---6---|  |
C|-0---0-------0---0-------0-------|-0---0-------0---0---------------|--|

F|---------------------------------|---------------------------------|
C|---------------------------------|---------------------------------|
G|---------5-----------6-----------|---------5-----------5---2---6---|
C|-0---0-------0---0---------------|-0---0-------0---0---------------| x4

Riff 2
F|---------------------------------|---------------------------------|
C|---------------------------------|---------------------------------|
G|-----2---------------------------|---------------------------------|
C|-0-------2---2---2-------2---2---|-0---1---1---1---1-------1---1---|

F|---------------------------------|---------------------------------|
C|---------------------------------|---------------------------------|
G|-----2---------------------------|---------------------3---2---1---|
C|-0-------2---2---2-------2---2---|-0---1---1---0---1---------------|

F|---------------------------------|---------------------------------|
C|---------------------------------|---------------------------------|
G|-----2---------------------------|---------------------------------|
C|-0-------2---2---2-------2---2---|-0---1---1---1---1-------1---1---|

Riff 3 (altered end)
F|---------------------------------|---------------------------------|
C|---------------------------------|---------------------------------|
G|-----3---2---1-------------------|-----3---2---1-------------------|
C|-0---------------0---3---2---1---|-0---------------0---3---2---1---| x4

F|---------------------------------|
C|---------------------------------|
G|---------------------------------|
C|-0-------------------------------|

Riff 4
F|---------------------------------|---------------------------------|
C|---------------------------------|---------------------------------|
G|---------------------------------|-0---0---0---0-------------------|
C|-5---5---5---5---5---5---5---5---|-----------------3---3---3---3---|

F|---------------------------------|---------------------------------|
C|---------------------------------|---------------------------------|
G|---------------------------------|-0---0---0---0-------------------|
C|-5---5---5---5---5---5---5---5---|-----------------6---6---6---6---|

F|---------------------------------|---------------------------------|
C|---------------------------------|---------------------------------|
G|---------------------------------|-0---0---0---0---2---2---2---2---|
C|-5---5---5---5---5---5---5---5---|---------------------------------|

F|---------------------------------|---------------------------------|
C|---------------------------------|---------------------------------|
G|-4---4---4---4---4---4---4---4---|-4---4---4---4---4---4---4---4---|
C|---------------------------------|---------------------------------|

Riff 5
F|---------------------------------|---------------------------------|
C|---------------------------------|---------------------------------|
G|---------5-----------6-------6---|---------5-----------5---2---6---|
C|-0---0-------0---0-------0-------|-0---0-------0---0---------------| x4

F|---------------------------------|---------------------------------|--|
C|---------------------------------|---------------------------------|  |
G|---------5-----------6-------6---|---------5-----------6-------6---|  |
C|-0---0-------0---0-------0-------|-0---0-------0---0-------0-------|  |
                                                                        x3
F|---------------------------------|---------------------------------|  |
C|---------------------------------|---------------------------------|  |
G|---------5-----------6-------6---|---------5-----------5---2---6---|  |
C|-0---0-------0---0-------0-------|-0---0-------0---0---------------|--|

Outro
F|---------------------------------|---------------------------------|--|
C|---------------------------------|---------------------------------|  |
G|-----5-------5---6\--------------|-----5-------5---6\--------------|  |
C|-0-------0-----------------------|-0-------0-----------------------|  |
                                                                        x3
F|---------------------------------|---------------------------------|  |
C|---------------------------------|---------------------------------|  |
G|-----5-------5---6\--------------|-----5-------5---5---2---6-------|  |
C|-0-------0-----------------------|-0-------0-----------------------|--|
Suggest correction
Give kudos to tab author, rate the tab!
1 2 3 4 5
comments
print report bad tab
guest
You may want to rate the tab now too:
select rating
Please do not post tabs as comments. Select "correction" instead!