Oops, an error
Loading. Please wait.

Si Tu Te Vas chords

29 views 1 this week
no commentswrite comment
1 2 3 4 5
3 more votes to show rating
add to favorites
×
Save as Personal and add changes to this tab that will be seen only by you. Learn more ›
×
You can save this tab as Personal to edit and correct it or add notes. All changes will be seen only by you. Learn more »
launch autoscroll
font size
0
reset
transpose
0
reset
simplify chords
display chords
guitar tuner
edit
Autoscroll
slow
fast
+/-
esc
set tempo
stop
Strumming
There is no strumming pattern for this song yet. and get +5 IQ
PUES OTRA COLABORACION DE LA RONDALLA "TLAYACAPAN"
UNA DE MIS CANCIONES FAVORITAS ESPERO LES GUSTE
PARA TI MI OSITA. ANA.K.R.S.

 D
De tus defectos y virtudes
         Em
me enamoré
                     A7
y a tu vida y tus costumbres
             D
empecé a querer

                         D7
En el amor y en la pareja
             G
me hiciste creer
                   D
y en la verdad de tus promesas
A7
para qué


 D
A tus detalles cariñosos
           Em
me acostumbré
                        A7
y a las caricias de tus manos
           D
sobre mi piel


                       D7
Y como algo sobrehumano
         G
te imaginé
              D
y sobre un pedestal te puse
A7
para qué       (A-B-C#-D)BAJEO


      D             Em
Si tú te vas, qué será de mí
     G              A7
si tú te vas, qué será de mí
   D
si tu te vas
   Em
enséñame a vivir sin ti
     G           A7
si tú te vas, si tú te vas
      D             Em
si tú te vas, qué será de mí
     G              A7
si tú te vas, qué será de mí
   D
si tu te vas
   Em
enséñame a vivir sin ti
     G           A7
si tú te vas, si tú te vas

E|-----------5-7-5------5-----------------5--------7-5---
B|-----7-7-8-------8-7-----7--8 --5-5-7-8--8-7-5-8-----8-7
G|-------------------------7--9------------------------
D|------------------------------------------------------
A|------------------------------------------------------
E|------------------------------------------------------

E|----------5-7-5-----5---5--7-5--7-9-10-9-10-9-7-5
B|----7-7-8-------8-7---7-- 7----8----------
G|---------------------------------------------
D|------------------------------------
A|------------------------------------
E|------------------------------------

E|----------5-7-9--9-10-12-----17----------
B|---5-7-8---------------------------------
G|------------------------------------------
D|-----------------------------------------
A|-------------------------------------------
E|-------------------------------------------


D
A tus detalles cariñosos
           Em
me acostumbré
                        A7
y a las caricias de tus manos
           D
sobre mi piel??
Suggest correction
Creating personal tab
Creating personal tab
You can edit any tab online and save it as your Personal.

You can edit, replace or remove any tab part or add personal notes – all changes will be seen only by you.

Personal tabs can be accessed anytime from any device, even offline.
Learn more »
Give kudos to tab author, rate the tab!
1 2 3 4 5
comments
print report bad tab
guest
Wanna post a correction for this tab? Suggest correction