Oops, an error
Loading. Please wait.

Tec Saltillo - Una Oportunidad tab

90 views 1 this week
no commentswrite comment
1 2 3 4 5
3 more votes to show rating
add to favorites
×
Save as Personal and add changes to this tab that will be seen only by you. Learn more ›
×
You can save this tab as Personal to edit and correct it or add notes. All changes will be seen only by you. Learn more »
launch autoscroll
font size
0
reset
how to read this tab
guitar tuner
edit
Autoscroll
slow
fast
+/-
esc
set tempo
stop
Este es mi primer aporte. Decidí subir de está rondalla
porque tiene rolas chidas y no he encontrado acordes de ninguna de
sus canciones. Les dejo esta rola que es la que más me gusta.

       A                           Bm
6|-------------------------------------------------------------------
5|-0---------------0---------------2---------------2-----------------
4|-------------------------------------------------------------------
3|---2---2---2---2---2---2---2---2---4---4---4---4---4---4---4---4---
2|-----2-------2-------2-------2-------3-------3-------3-------3-----
1|---------0---------------0---------------2---------------2---------
       D                           A
6|-------------------------------------------------------------------
5|---------------------------------0---------------0-----------------
4|-0---------------0-------------------------------------------------
3|---2---2---2---2---2---2---2---2---2---2---2---2---2---2---2---2---
2|-----3-------3-------3-------2-------2-------2-------2-------2-----
1|---------2---------------2---------------0---------------0---------

Con rasgueo de bolero

Bm   D   A

A                F#m                   D
Si pudiéramos hablar para saber la verdad
                   E                           A
y encontrar una razón del porqué de nuestro adiós
                 F#m                    D                          E
dame la oportunidad de aclarar la situación ayúdame a hablar de amor
                  Bm                       D                    Dm(pausa)
ven y dime la verdad no quiero incomodarte ya solo esto y nada mas
                      A
porque sé que tú te iras.


A                  F#m                      D
Si llevas un tiempo ya preguntándote que hacer
                     E                    A
como hacer para olvidar olvidarte de mi amor
                         F#m                     D                     E
si ves que llora mi interior es porque siento dolor al saber que partiras
                 Bm                      D                  Dm
no me ilusiones más por favor no pienses ya aquí todo está mal
          E             A
nuestro amor no existe ya.

Bm D A  Bm  D  Dm(pausa)  A

A                  F#m                      D
Si llevas un tiempo ya preguntándote que hacer
                     E                    A
como hacer para olvidar olvidarte de mi amor
                         F#m                     D                     E
si ves que llora mi interior es porque siento dolor al saber que partiras
                 Bm                      D                  Dm
no me ilusiones más por favor no pienses ya aquí todo está mal
            E  E7            A                 D    E    A
nuestro amoooor?. no existe yaaaa.

            
            
Suggest correction
Creating personal tab
Creating personal tab
You can edit any tab online and save it as your Personal.

You can edit, replace or remove any tab part or add personal notes – all changes will be seen only by you.

Personal tabs can be accessed anytime from any device, even offline.
Learn more »
Give kudos to tab author, rate the tab!
1 2 3 4 5
comments
print report bad tab
guest
Wanna post a correction for this tab? Suggest correction