Oops, an error
Loading. Please wait.

Servimos Al Mundo chords

28 views 1 this week
no commentswrite comment
1 2 3 4 5
3 more votes to show rating
add to favorites
×
Save as Personal and add changes to this tab that will be seen only by you. Learn more ›
×
You can save this tab as Personal to edit and correct it or add notes. All changes will be seen only by you. Learn more »
launch autoscroll
font size
0
reset
transpose
0
reset
display chords
guitar tuner
edit
Autoscroll
slow
fast
+/-
esc
set tempo
stop
Strumming
There is no strumming pattern for this song yet. and get +5 IQ
Este es el arpegio inicial (x2)

   Am                F
e-----------------------------------------
B------1--------1--------1--------1-------
G----2---2----2---2----2---2----2---2-----
D---2-2-2-2--2-2-2-2--3-3-3-3--3-3-3-3----
A--0--------0-----------------------------
E--------------------1--------1-----------

El arpegio continua durante toda la canción, aunque también
puede tocarse con acordes siguiendo el ritmo de la batería
(2 veces por cada nota escrita a continuación):

Am                  F
Hoy vi un joven de 60 años,
Am                         F
Se notaba fuerza en su mirar,
Am                       F
A su lado me sentí un anciano,
Am                             F
Sobre todo cuando empezó a hablar,

Am                                   F
Escucha bien muchacho, el mundo hay que cambiar,
Am                               F
Si no somos nosotros, ¿quién va a empezar?

Am                                     F
Que no te asuste el miedo, lo puedes conseguir,
Am                                     F
Si das tu el primer paso, yo iré tras de ti,
G                            E
Y así seremos dos, y pronto muchos más.

ESTRIBILLO:
F                    G
Porque juntos podemos hacer realidad
C                          Am
tantos sueños de hoy y de ayer.
F                   G
Nuestros padres y abuelos ya dieron un paso,
E                                    Am
que todo su esfuerzo no haya sido en vano.
F                                   G
Si hoy es por ti, mañana es por todos,
              E                      Am
si hoy es por ti, mañana es por nosotros,
F                          G                     Am
Que aún quedan sueños en el horizonte por perseguir.

A continuación la guitarra eléctrica hace un pequeño
sólo que se repite cuatro veces en una tonalidad y
cuatro veces en otra más aguda:

e-------------------------------  (x4)
B-------------------------------
G--2-2---4-5-4---7---5--4-2-2---
D-------------------------------
A-------------------------------
E-------------------------------

e--5-5---7-8-7---10---8--7-5-5--  (x4)
B-------------------------------
G-------------------------------
D-------------------------------
A-------------------------------
E-------------------------------

La salida del solo es algo así
e-------------------------------
B-------------------------------
G--2-2---5-4-5---7---5--7--9-9--
D-------------------------------
A-------------------------------
E-------------------------------

F                    G
Porque juntos podemos hacer realidad
C                          Am
tantos sueños de hoy y de ayer.
F                   G
Nuestros padres y abuelos ya dieron un paso,
E                                    Am
que todo su esfuerzo no haya sido en vano.
F                                   G
Si hoy es por ti, mañana es por todos,
              E                      Am
si hoy es por ti, mañana es por nosotros,
F                          G                     Am
Que aún quedan sueños en el horizonte por perseguir.

            
            
Suggest correction
Creating personal tab
Creating personal tab
You can edit any tab online and save it as your Personal.

You can edit, replace or remove any tab part or add personal notes – all changes will be seen only by you.

Personal tabs can be accessed anytime from any device, even offline.
Learn more »
Give kudos to tab author, rate the tab!
1 2 3 4 5
comments
print report bad tab
guest
Wanna post a correction for this tab? Suggest correction