Oops, an error
Loading. Please wait.

Angeles tab

44 views 1 this week
no commentswrite comment
1 2 3 4 5
3 more votes to show rating
add to favorites
×
Save as Personal and add changes to this tab that will be seen only by you. Learn more ›
×
You can save this tab as Personal to edit and correct it or add notes. All changes will be seen only by you. Learn more »
launch autoscroll
font size
0
reset
how to read this tab
guitar tuner
edit
Autoscroll
slow
fast
+/-
esc
set tempo
stop
Bueno amigos, aquí les dejo esta bella canción, con la cual,
por cierto, comencé mis primeras andanzas por el mástil de la guitarra
y sus trastes =). La versión existente tiene algunos detalles que me
gustaría corregir y le hace falta un "Intro", ¿no creen?
Así la tocamos acá en Venezuela?corrigiendo un poco la otra versión.

Intro
  D.............................  G.............
e----0------0--------0------0---------3------3------------
B---3-3----3-3-3----3-3----3-3-3-----0-0----0-0-----------
G--2---2--2---2----0---0--0---0-----0---0--0---0----------
D-0------0--------2------2--------------------------------
A---------------------------------------------------------
E----------------------------------3------3---------------
  Bm.......  A........
e-----2------------0h2--
B-3--4---4---0----------
G---4---4--------2------
D--------------2--------
A-2----------0----------
E-----------------------

  D..............................   G............
e----0---3--0---0-----0--3--0---0------3------3-----
B---3-3---3----3-----3-3--3----3------0-0----0-0----
G--2---2---2--2-----0---0--0--0------0---0--0---0---
D-0----------------2--------------------------------
A---------------------------------------------------
E-----------------------------------3------3---------

Bm.......  A........
e-----2------------0--
B-3--4---4---0--------
G---4---4--------2----
D--------------2------
A-2----------0--------
E---------------------

   D                                          A
1. Si sientes cerca un barullo y no sabes qué es
                                   G
Es un ángel llegando aunque no lo ves
                                  Bm     A
Para acercar nuestras oraciones a Dioooooos
     D                                    A
Sin más, abre el corazón y comienza a cantar

                                              G
Que no hay gozo más grande que el amor celestial
                               Bm   A
Y los ángeles ya vienen a celebraaaaar


Coro
D                               A
Sí, vuelan los ángeles en el lugar
                                G
En medio de todos y sobre el altar
                                  Bm     A
Trayendo sus manos llenas de bendicioooones
    D                                      A
No sé si el cielo bajó o que fue lo que pasó
                                 G
Yo de que está lleno de ángeles, sí
                 A          D
Y que el mismo Dios esta aquí.


   D                                     A
2. Si los ángeles vuelan la iglesia se alegra
                                      G
Todos cantan y lloran, las almas se elevan
                                    Bm     A
Se asusta el infierno y se aleja el maaaaaaal
 D                                        A
Siente algún ruido de alas, los ángeles vuelan
                                 G
Confía hermano que ha llegado la hora
                                  Bm    A
La hora de Dios y te quiere encontraaaaaar

Coro x3

Listo!! Espero la disfruten mucho!!!
Saludos a todos los lasallistas del mundo!!!
Promo 52. La Salle La Colina. Venezuela

            
            
Suggest correction
Creating personal tab
Creating personal tab
You can edit any tab online and save it as your Personal.

You can edit, replace or remove any tab part or add personal notes – all changes will be seen only by you.

Personal tabs can be accessed anytime from any device, even offline.
Learn more »
Give kudos to tab author, rate the tab!
1 2 3 4 5
comments
print report bad tab
guest
Wanna post a correction for this tab? Suggest correction