Oops, an error
Loading. Please wait.

El Son De La Negra tab

110 views 1 this week
no commentswrite comment
1 2 3 4 5
3 more votes to show rating
add to favorites
×
Save as Personal and add changes to this tab that will be seen only by you. Learn more ›
×
You can save this tab as Personal to edit and correct it or add notes. All changes will be seen only by you. Learn more »
launch autoscroll
font size
0
reset
how to read this tab
guitar tuner
edit
Autoscroll
slow
fast
+/-
esc
set tempo
stop
*
Aquí está un clásico de la música de Mariachi,
Arriba la Rondalla del St. y V13


Viva México !!!


Intro:

|------------------------------------------------------------------------|
|-7/8---7--7/8---10--10/12--11/12-12-11/12-12-11/12-12-11/12-12-11/12-12-|
|------------------------------------------------------------------------|
|------------------------------------------------------------------------|
|------------------------------------------------------------------------|
|------------------------------------------------------------------------|


|---------------------------------------------------------------8/10-----|
|-11/12-12-11/12-12-11/12-12-11/12-12-11/12-12-11/12-12--11/12-----------|
|------------------------------------------------------------------------|
|------------------------------------------------------------------------|
|------------------------------------------------------------------------|
|------------------------------------------------------------------------|


|-9/10-10-9/10-10-9/10-10-9/10-10-9/10-10-9/10-10-9/10-10-9/10-10--------|
|------------------------------------------------------------------------|
|------------------------------------------------------------------------|
|------------------------------------------------------------------------|
|------------------------------------------------------------------------|
|------------------------------------------------------------------------|


|-9/10-10-9/10-10-9/10-10--9/10--10-----9/10----9/10--9/10--9/10---------|
|------------------------------------------------------------------------|
|------------------------------------------------------------------------|
|------------------------------------------------------------------------|
|------------------------------------------------------------------------|
|------------------------------------------------------------------------|


|-9/10----9/10----9/10--9/10--9/10----|
|-------------------------------------|
|-------------------------------------|
|-------------------------------------|
|-------------------------------------|
|-------------------------------------|


0:22"
|-----------------------------------------------------------------------|
|--8-7-8-10--10/12--8-7-8-10--10/12--8-7-8-10--10/12--8-7-8-10--10/12---|
|-----------------------------------------------------------------------|
|-----------------------------------------------------------------------|
|-----------------------------------------------------------------------|
|-----------------------------------------------------------------------|


|------------------------------------------------------------------------|
|--10-12-10-12-7---7--8/10--8-7--7/8---10-12-10-12-7---7--8/10--8-7--7/8-|
|----------------7-----------------------------------7-------------------|
|------------------------------------------------------------------------|
|------------------------------------------------------------------------|
|------------------------------------------------------------------------|

|---------------------------------------------|
|--10-12-10-12-7---7--8/10--8-7--7/8---7/8~~--|
|----------------7----------------------------|
|---------------------------------------------|
|---------------------------------------------|
|---------------------------------------------|


0:35"
|--10-8-7-8--8-/10--7------------------------------------|
|---------------------8-------7-8-10--10/12--8-----------|
|---------------------------9-------------------7-7------|
|--------------------------------------------------------|
|--------------------------------------------------------|
|--------------------------------------------------------|

|-10-8-7-8--8-/10-7-------------------------------------------------------|
|-------------------8-8-----7-8-10--10/12-10-8-7-5-------7-8-7-8/10-10/12-|
|-------------------------9------------------------9-7-9------------------|
|-------------------------------------------------------------------------|
|-------------------------------------------------------------------------|
|-------------------------------------------------------------------------|


Esta es la parte cantada:
|-------------------------------------------------------|
|-------------------------------------------------------|
|--9--7--5-----5--7--7/9--9---7-7-7-7-7/9--7--7/9--7----|
|-----------9-------------------------------------------|
|-------------------------------------------------------|
|-------------------------------------------------------|


|-------------------------------------------------------|
|-------------------------------------------------------|
|--9--7--5-----5--7--7/9----7-7-7-7-7/9--7--7/9--7------|
|-----------9-------------------------------------------|
|-------------------------------------------------------|
|-------------------------------------------------------|


|--------------------------------------------------------|
|--------------------------------------------------------|
|--9--7--5-----5--7--7/9----7-7-7-7-7/9--7--7/9---9/--7--|
|-----------9--------------------------------------------|
|--------------------------------------------------------|
|--------------------------------------------------------|


Continua música:

1:02"
|-----------------------------------------------------------------|
|-11/12-12-11/12-12-11/12-12-11/12-12-11/12-12-11/12-12-11/12-12--|
|-----------------------------------------------------------------|
|-----------------------------------------------------------------|
|-----------------------------------------------------------------|
|-----------------------------------------------------------------|


|-------------------------------------------------------------------|
|-11/12-12-11/12-12-11/12-12-11/12-12-11/12-12----------------------|
|------------------------------------------------7--6/7-7/9--11/12--|
|-------------------------------------------------------------------|
|-------------------------------------------------------------------|
|-------------------------------------------------------------------|


|-----------------------------------------------------------------|
|----------7-5----------------------------------------------------|
|-4-5--5/6-----5---4/5-4----4--5--5/7-7--7/9-9--9/11-11--11/12~~--|
|----------------7------------------------------------------------|
|-----------------------------------------------------------------|
|-----------------------------------------------------------------|


|-----------------------------------------------------------------|
|----------7-5----------------------------------------------------|
|-4-5--5/6-----5---4/5-4----4--5--5/7-7--7/9-9--9/11-11--11/12~~--|
|----------------7------------------------------------------------|
|-----------------------------------------------------------------|
|-----------------------------------------------------------------|


                             1:18"
|-----------------------------15-19-15-19-17-14-17-15-12-15-14----|
|----------7-5----------------------------------------------------|
|-4-5--5/6-----5---4/5-4----~~------------------------------------|
|----------------7------------------------------------------------|
|-----------------------------------------------------------------|
|-----------------------------------------------------------------|


|--8-12-8-12-10-7-10-8-5-8-7-----15-19-15-19-17-14-17-15-12-15-14--|
|------------------------------------------------------------------|
|------------------------------------------------------------------|
|------------------------------------------------------------------|
|------------------------------------------------------------------|
|------------------------------------------------------------------|


|--8-12-8-12-10-7-10-8-5-8-7-----|
|--------------------------------|
|--------------------------------|
|--------------------------------|
|--------------------------------|
|--------------------------------|


|-15-19-15-19-17-14-17-15-12-15-14-10-14-12-8-12-10-7-10-8-5-8--7~-|
|------------------------------------------------------------------|
|------------------------------------------------------------------|
|------------------------------------------------------------------|
|------------------------------------------------------------------|
|------------------------------------------------------------------|


1:31"
|--15-----10-----8-----10-------15-----10-----8-----10------|
|-----------------------------------------------------------|
|-----------------------------------------------------------|
|-----------------------------------------------------------|
|-----------------------------------------------------------|
|-----------------------------------------------------------|


|--14/15-15-15-15-15--9/10-10-10-10-10--7/8-8-8-8-8--9/10-10-10-10-10--|
|----------------------------------------------------------------------|
|----------------------------------------------------------------------|
|----------------------------------------------------------------------|
|----------------------------------------------------------------------|
|----------------------------------------------------------------------|

|--14/15-15-15-15-15--9/10-10-10-10-10--7/8-8-8-8-8--9/10-10-10-10-10--|
|----------------------------------------------------------------------|
|----------------------------------------------------------------------|
|----------------------------------------------------------------------|
|----------------------------------------------------------------------|
|----------------------------------------------------------------------|

1:48"
|-14/15--15--15-15-15-15---9/10--10--10-10-10-10----------|
|---------------------------------------------------------|
|---------------------------------------------------------|
|---------------------------------------------------------|
|---------------------------------------------------------|
|---------------------------------------------------------|


|-7/8--8--8-8-8-8---9/10--10--10-10-10-10--------|
|------------------------------------------------|
|------------------------------------------------|
|------------------------------------------------|
|------------------------------------------------|
|------------------------------------------------|


|-14/15--15--15-15-15-15---9/10--10--10-10-10-10----------|
|---------------------------------------------------------|
|---------------------------------------------------------|
|---------------------------------------------------------|
|---------------------------------------------------------|
|---------------------------------------------------------|


|-7/8--8--8-8-8-8---9/10------10~~--|
|-----------------------------------|
|-----------------------------------|
|-----------------------------------|
|-----------------------------------|
|-----------------------------------|


Último verso:

1:56"
|-------------------------------------------------------|
|-------------------------------------------------------|
|---7-7-7--7--9--9/10-10--10-10-10-10--10/12--10-9------|
|-9-----------------------------------------------------|
|-------------------------------------------------------|
|-------------------------------------------------------|


|---------------------------------------------------------|
|---------------------------------------------------------|
|-10/12-12--11-9--11-9--7--7---9/11-11---9-7-9------------|
|----------------------------------------------10-9-------|
|---------------------------------------------------------|
|---------------------------------------------------------|


|-------------------------------------------------------|
|-------------------------------------------------------|
|---7-7-7--7--9--9/10-10--10-10-10-10--10/12--10-9------|
|-9-----------------------------------------------------|
|-------------------------------------------------------|
|-------------------------------------------------------|


|---------------------------------------------------------|
|---------------------------------------------------------|
|-10/12-12--11-9--11-9--7--7---9/11-11---9-7/9------------|
|----------------------------------------------10-9-------|
|---------------------------------------------------------|
|---------------------------------------------------------|


Outro:

2:12"
|---15-19-15-19-17-14-17-15-12-15-14----|
|---------------------------------------|
|-----~~--------------------------------|
|---------------------------------------|
|---------------------------------------|
|---------------------------------------|


|--8-12-8-12-10-7-10-8-5-8-7-----15-19-15-19-17-14-17-15-12-15-14--|
|------------------------------------------------------------------|
|------------------------------------------------------------------|
|------------------------------------------------------------------|
|------------------------------------------------------------------|
|------------------------------------------------------------------|


|--8-12-8-12-10-7-10-8-5-8-7-----|
|--------------------------------|
|--------------------------------|
|--------------------------------|
|--------------------------------|
|--------------------------------|


|-15-19-15-19-17-14-17-15-12-15-14-10-14-12-8-12-10-7-10-8-5-8--7~-|
|------------------------------------------------------------------|
|------------------------------------------------------------------|
|------------------------------------------------------------------|
|------------------------------------------------------------------|
|------------------------------------------------------------------|


2:25"
|----------12-15--------10-14---------8-12-----7-10----|
|-13-------------12-----------10-----------8-----------|
|------------------------------------------------------|
|------------------------------------------------------|
|------------------------------------------------------|
|------------------------------------------------------|


|----------12-15--------10-14---------8-12-----7-10----|
|-13-------------12-----------10-----------8-----------|
|------------------------------------------------------|
|------------------------------------------------------|
|------------------------------------------------------|
|------------------------------------------------------|


2:34"
|----12-15-----10-14-----8-12----7-10----|
|-13--------12--------10-------8---------|
|----------------------------------------|
|----------------------------------------|
|----------------------------------------|
|----------------------------------------|


|----12-15-----10-14-----8-12----7-10----|
|-13--------12--------10-------8---------|
|----------------------------------------|
|----------------------------------------|
|----------------------------------------|
|----------------------------------------|


2:41"
|-------12-12-15-15--------10-10-14-14--------8-8-12-12-----7-7-10-10-|
|-13-13--------------12-12--------------10-10-----------8-8-----------|
|---------------------------------------------------------------------|
|---------------------------------------------------------------------|
|---------------------------------------------------------------------|
|---------------------------------------------------------------------|


|-------12-12-15-15--------10-10-14-14--------8-8-12-12-----7-7-10-10-|
|-13-13--------------12-12--------------10-10-----------8-8-----------|
|---------------------------------------------------------------------|
|---------------------------------------------------------------------|
|---------------------------------------------------------------------|
|---------------------------------------------------------------------|


|-------12-12-15-15--------10-10--14---------------------------|
|-13-13--------------12-12--------------------7--8/10---8-8----|
|-------------------------------------------7------------------|
|--------------------------------------------------------------|
|--------------------------------------------------------------|
|--------------------------------------------------------------|


Dudas o comentarios!!!!


                             ***
                         *******
                     ***********
                 ***************
             ************* *****
         *************     *****
         *********         *****
         *****            ******
         *****       ***********
         *****   ***************
         *************     *****
         *********         *****
         *****             *****
         *****             *****
         *****             *****
         *****          ********
         *****        **********
         *****        **********
      ********        **********
    **********        **********
    **********          ******
    **********
    **********
      ******
Suggest correction
Creating personal tab
Creating personal tab
You can edit any tab online and save it as your Personal.

You can edit, replace or remove any tab part or add personal notes – all changes will be seen only by you.

Personal tabs can be accessed anytime from any device, even offline.
Learn more »
Give kudos to tab author, rate the tab!
1 2 3 4 5
comments
print report bad tab
guest
Wanna post a correction for this tab? Suggest correction