Oops, an error
Loading. Please wait.

Las Golondrinas tab

59 views 1 this week
no commentswrite comment
1 2 3 4 5
3 more votes to show rating
add to favorites
×
Save as Personal and add changes to this tab that will be seen only by you. Learn more ›
×
You can save this tab as Personal to edit and correct it or add notes. All changes will be seen only by you. Learn more »
launch autoscroll
font size
0
reset
how to read this tab
guitar tuner
edit
Autoscroll
slow
fast
+/-
esc
set tempo
stop
UNA HERMOSA PISTA, QUE SE PUEDE INTERPRETAR EN MOMENTOS TRISTES
ESPERO Y LES GUSTE

e-------0--1--------0--2--3--5-----7--7-----5-----------
B----3-----3-----3--2--3--5--7--5--------------8--7--5--
G-2--------2--2--------------------7--7--6-----------0--
D----------0-----------0--------0-----------------------
A-------------------------------------0-----------------
E-------------------------------------------------------

e-------0--1--------5--3--5--7--5--0--------3--2--0--
B----3-----------3--7--5--7--8--7--------2-----------
G-2-----------2-----------------------2--------------
D----5--2--0-----------0-----------------------------
A----------------------------------0--------------0--
E----------------------------------------------------

e-------0--2--------0-----10-10-9-10-------7--
B----3-----------------7-------------------3--
G-2-----------2--4--6--7----------0--------3--
D----5--2--0-----------7----------------0--3--
A----------------------9------9-------7----3--
E------------------------------------------3--

e-7-----------------5--4--5--3-----0-----------------
B-8--8--5--7--------4--4--4-----------3--------------
G----9--6--------------------------------2--1--2-----
D----------0--4--0--4--3--4-----------0-----------4--
A----------------------------0--2--4-----------------
E----------------------------------------------------

e-5---7--5--5---------3-0-----------------0-2-----------------
B--------------------------2-----0--2--3-------------------3--
G--------------------------0--2--0--2-----------2-0-2-1-0-----
D--------------------------------------5--2--0-------------4--
A--------------0-2-4------------------------------------------
E-------------------------------------------------------------

e-2--0---------------------------------------------------2--
B-------3--3----2----2--0--2--3--2--0--------------------2--
G-2--0---------------2--0--2--4--2--0--2-----------------0--
D-------4--2-4--2-0--0-----------------4--2--0-----------0--
A-----------------------------------------------4--2--0-----
E-----------------------------------------------------------


e-5--5--4--5------------------2--3--5--7--9--10-------7--
B---------------------------------------------7-------3--
G-------------2--1--2-------------------------7-------3--
D----------------------4-2-0--------4--5--7--------0--3--
A------------------------------------------------7----3--
E-----------------------------------------------------3--

e-7--------7-------5--4--5--3-----0------------------
B-8--8--5----------4--4--4-----------3---------------
G----9--6--------------------------------2-----------
D----------0--4-0--4--3--4-----------0------4--2--0--
A---------------------------0--2--4------------------
E----------------------------------------------------

SE VUELVE A REPETIR TODO
Y AL FINAL EN LUGAR DEL ULTIMO TOQUE O BAJEO SE HACE ESTE RASGUEO

e--10--
B--7---
G--7---
D--7---
A------
E------


DEDICADA A AQUELLOS MOMENTOS TRISTES Y MELANCOLICOS QUE LA
VIDA NOS DA, NO PARA HACERNOS DEBILES SINO PARA FORTALECERNOS

SUGERENCIAS, COMENTARIOS O DUDAS ESCRIBANME A
patoni_prc@

                       ***
                     *  *
::: (|_(| .. *....*  *   *
*: (=' :') :*....*     ** *
?.. (,(')(')¤...*..

            
            
Suggest correction
Creating personal tab
Creating personal tab
You can edit any tab online and save it as your Personal.

You can edit, replace or remove any tab part or add personal notes – all changes will be seen only by you.

Personal tabs can be accessed anytime from any device, even offline.
Learn more »
Give kudos to tab author, rate the tab!
1 2 3 4 5
comments
print report bad tab
guest
Wanna post a correction for this tab? Suggest correction