Oops, an error
Loading. Please wait.

Pajaro Campana tab

version 3
version 3

Whole song

860 views 3 this week
no commentswrite comment
1 2 3 4 5
3 more votes to show rating
add to favorites
×
Save as Personal and add changes to this tab that will be seen only by you. Learn more ›
×
You can save this tab as Personal to edit and correct it or add notes. All changes will be seen only by you. Learn more »
launch autoscroll
font size
0
reset
how to read this tab
guitar tuner
edit
Autoscroll
slow
fast
+/-
esc
set tempo
stop
INTRO:
e|---8-----8-----8------8-|----8---8---8---8---8---8---8---8--|
 |-6-----5-----5------6---|--6---6---6---6---5---5---5---5----|
 |------------------------|-----------------------------------|
 |------------------------|-----------------------------------|
 |------------------------|-----------------------------------|
E|------------------------|-----------------------------------|

e|---8---8---8---8---8---8---8---8---8---8---8---8-|(1*)
 |-6---6---6---6---6---6---5---5---5---5---5---5---|
 |-------------------------------------------------|
 |-------------------------------------------------|
 |-------------------------------------------------|
E|-------------------------------------------------|

(1*) ---8---8---8---8---8-----|
     -6---6---6---6---6---6~--|
     -------------------------|
     -------------------------|
     -------------------------|
     -------------------------|


e|---8----6---5---3--1--|
 |-5----3------------1--|
 |----------5---3-------|
 |----------------------|
 |----------------------|
E|----------------------|


1ER RIFF:

e|-5-5-6-5-------------------------------|(2*)
 |---------8-6-6-5--5-5-5-6-5------------|
 |----------------------------7-5--------|
 |--------------------------------8-7~---|
 |---------------------------------------|
E|---------------------------------------|

(2*) -5-5-6-5----------------------------|
     ---------8-6~-----5---3---1---------|
     ----------------5---3---2----5---2--|
     ---------------------------5-----3--| (2X)
     ------------------------------------|
     ------------------------------------|


e|-----------------5--|
 |-------5---5-6-8-6--|
 |-2-3-5-5------------|  (2X)
 |--------------------|
 |--------------------|
E|--------------------|


e|---8-----8-----8-|---8---8---8---8---8---8---8---8-|(3*)
 |-6-----5-----5---|-6---6---6---6---5---5---5---5---|
 |-----------------|---------------------------------|
 |-----------------|---------------------------------|
 |-----------------|---------------------------------|
E|-----------------|---------------------------------|

(3*)--8---8---8---8---8------|
    -6---6---6---6---6---6~--|
    -------------------------|
    -------------------------|
    -------------------------|
    -------------------------|

e|---8----6---5---3--1--|
 |-5----3------------1--|
 |----------5---3-------|
 |----------------------|
 |----------------------|
E|----------------------|


2DO RIFF:

e|-----------------------------------------------------------|(4*)
 |----------------------------------------------11-10--------|
 |------------------------------10-9-------9-12-------12-10--|
 |---------------8-7------7-10-------12-10-------------------|
 |-8-7------7-10-----10-8------------------------------------|
E|-----10-8--------------------------------------------------|

(4*)------13-12-10-8-10-8-6-8-6-5---6-8--13-12-10-8-10-8-6-8-6~---|
    10-13---------------------------------------------------------|
    --------------------------------------------------------------|
    --------------------------------------------------------------|
    --------------------------------------------------------------|
    --------------------------------------------------------------|


e|---8---8---8---8---8---8---8---8-|---8---8---8---8---8-----|
 |-6---6---6---6---5---5---5---5---|-6---6---6---6---6---6~--|
 |---------------------------------|-------------------------|
 |---------------------------------|-------------------------|
 |---------------------------------|-------------------------|
E|---------------------------------|-------------------------|


LISTO ESO ES TODO, SE REPITE DE NUEVO DESDE EL PRIMER RIFF....
AMMMM SE ME OLVIDABA, DESPUES DE QUE TERMINA TODO...
EL FINAL NO ESTOY MUY SEGURO PERO SIRVE PARA CORTAR LA CANCION
ES ASI:

e|---8----6---5-----------|
 |-5----3----------5-6~~--|
 |----------5---3--5-5~~--|
 |------------------------|
 |------------------------|
E|------------------------|

JAJAJA, ESTO ES LA VAGANCIA DE LAS VACACIONES,
JEJE PERO A EL QUE LE GUSTA LE SABE...
PSDT: LO DE LOS ASTERISCOS (*), SON LA CONTINUACION DE LA TAB, LO QUE SIGUE

            
            
Suggest correction
Creating personal tab
Creating personal tab
You can edit any tab online and save it as your Personal.

You can edit, replace or remove any tab part or add personal notes – all changes will be seen only by you.

Personal tabs can be accessed anytime from any device, even offline.
Learn more »
Give kudos to tab author, rate the tab!
1 2 3 4 5
comments
print report bad tab
guest
Wanna post a correction for this tab? Suggest correction