Oops, an error
Loading. Please wait.

Far Behind Bass Tab

version 4
version 4

Whole song

Interactive

2,420 views 3 this week
1 commentread comment
1 2 3 4 5
x 3
add to favorites
launch autoscroll
font size
0
reset
guitar tuner
Autoscroll
slow
fast
+/-
esc
set tempo
stop
Help us to improve Ultimate-Guitar.com Take our survey!
×
Author
Difficulty
novice
verse (after 8 bars) 
G|-------------------------------------------------------|
D|-------------------------------------------------------|
A|-3---3-2-------------5--7--7-7--7--5-5-5---0-2-3---3-2-|x5
E|----------3---0-3-3------------------------------------|

Chorus 
G|----------------------------------------------------------------------------------|
D|----------------------------------------------------------------------------------|
A|-----------------------------------------5--5-5--5--5-5-5-5--3--3-3--3--3-3-3-3-2-|x3
E|-3--3-3--3--3-3-3-3--0--0-0--0--0-0-0-0-------------------------------------------|

verse 
G|-------------------------------------------------------|
D|-------------------------------------------------------|
A|-3---3-2-------------5--7--7-7--7--5-5-5---0-2-3---3-2-|x5
E|----------3---0-3-3------------------------------------|

solo 
G|----------------------------------------------------------------------------------|
D|----------------------------------------------------------------------------------|
A|-----------------------------------------5--5-5--5--5-5-5-5--3--3-3--3--3-3-3-3-2-|x4
E|-3--3-3--3--3-3-3-3--0--0-0--0--0-0-0-0-------------------------------------------|

bridge 
G|------------------------|
D|------------------------|
A|------7----------7--7-7-|x7
E|-0-0----0--0-0----------|

G|------------------|
D|------------------|
A|-7--5-------------|x1
E|-------7--6--5--0-|

outro x2
G|--------------------------------------------------------------------------------|
D|--------------------------------------------------------------------------------|
A|--------------------------------------------------------------------------------|
E|-3--3-3--3--3-3-3-3--3--3-3--3--3-3-3-3---0--0-0--0--0-0-0-0-0--0-0--0--0-0-0-0-|

G|-----------------------------------------------------------------------------|
D|-----------------------------------------------------------------------------|
A|----------------------------------------------------------------7-5----------|
E|-3--3-3--3--3-3-3-3--3--3-3--3--3-3-3-3---0--0-0--0--0-0-0-0-0-------7-6-5-0-|

G|------------------|
D|------------------|
A|-7--5-------------|x4
E|-------7--6--5--0-|

G|---|
D|---|
A|---|x1
E|-3-|
Suggest correction
Give kudos to tab author, rate the tab!
1 2 3 4 5
comments
print report bad tab
1 comment total.
0 reply
KennyM79 2,228 Apr 25, 2015 10:14 AM, edited at 10:18 am

For some reason, everybody is posting this song in Standard tuning when it's in Drop-D (such a simple thing to figure out). It makes me wonder if anybody has actually sat down and taken the time to listen to the song. If anybody did, and they had paid attention to what's being played, and tabbed out the song out based on what was actually being played as opposed to what "sounds close enough", we wouldn't get these tabs that just sound lazy.

I printed this tab out and used it to practice, and the very first thing I noticed was that it wasn't even close to being right. Everybody else has pretty much just copied and pasted the same tabs, maybe with a minor variation.

I've already sat down and listened to this song, ad nauseam, and I've written down the correct notes, in the correct tune. When I get a few minutes, I'll try to post the tabs.

I like Ultimate-Guitar, and I like that I can come here to get tabs, but most of the time, they end up being unbelievably wrong, and I just use them as a jumping off point to correct them on my own after actually taking the time to listen to what I'm hearing.

guest
You may want to rate the tab now too:
select rating
Wanna post a correction for this tab? Suggest correction