Oops, an error
Loading. Please wait.

Lover Come Back To Me tab

34 views 1 this week
2 commentsread comments
1 2 3 4 5
2 more votes to show rating
add to favorites
×
Save as Personal and add changes to this tab that will be seen only by you. Learn more ›
×
You can save this tab as Personal to edit and correct it or add notes. All changes will be seen only by you. Learn more »
launch autoscroll
font size
0
reset
how to read this tab
guitar tuner
edit
Autoscroll
slow
fast
+/-
esc
set tempo
stop
About this tab version
Full song tab, with most parts included for 2 guitars. Please rate or comment. Was this info helpful? Yes No
Candlebox - Lover Come Back to Me
Tuning - Standard
Tabbed by jjhand
 
 
[Intro]
   Rhythm
e|-----------------------------------------------|---------------------------------------1p0-------|
B|----6-----6--------10------10\3----------------|----6-----6--------10------10\3--------------3---|
G|-/7-----7---7--/10------10---\(3)--------------|-/7-----7---7--/10------10---\(3)----3-----------|
D|-----------------------------------------------|-------------------------------------------------|
A|-----------------------------------------------|-------------------------------------------------|
E|-----------------------------------------------|-------------------------------------------------|
 
 
 
[PreVerse]
 
   Rhythm
e|-----------------------------------------------|----------------------------------------------|
B|----6-----6--------10------10\3----------------|----6-----6-------5-----5----3----------------|
G|-/7-----7---7--/10------10---\(3)--------------|-/7-----7---7--/5-----5---5--3----------------|
D|-----------------------------------------------|----------------------------------------------|
A|-----------------------------------------------|----------------------------------------------|
E|-----------------------------------------------|----------------------------------------------|
 |
 | Lead (with modulation & echo effect)
e|-----------------------------------------------|-----------------------------------------------|
B|------------------------------------5----------|--------------------------------6p5---------6--|
G|------------------------------------7b9-----7--|-/10--------------------------------5----------|
D|-----------------------------------------------|----------------------------------------5/7----|
A|-----------------------------------------------|-----------------------------------------------|
E|-----------------------------------------------|-----------------------------------------------|
 
 
  
[Verse]
  
   Rhythm
e|-----------------------------------------|------------------------------------|
B|-------6------------6---5----------------|-6-----------6-----------5------6---|
G|---------------5------5------------------|-------7---5-------5----------------|
D|-0-----------7---------------------------|-----7------------------------------|
A|-----------------------------------------|------------------------------------|
E|-----------------------------------------|------------------------------------|
 |
 | Lead
e|-----------------------------------------|------------------------------------|
B|-5---------------------------------------|-------------------------10---------|
G|-----------------------------------------|----------------------7-------------|
D|---------------5--------7----------------|------------------------------------|
A|-----------------------------------------|------------------------------------|
E|-----------------------------------------|------------------------------------|
 
   Rhythm 
e|-------5---------------------------------|----------------5--5-----------------|
B|-6----------------------5----------------|-------6-----------------------------|
G|-----------5-----------------------------|-7--------5--------------------------|
D|-----7-----------------------------------|-------------------------------------|
A|-----------------------------------------|-------------------------------------|
E|-----------------------------------------|-------------------------------------|
 | 
 | Lead
e|-----------------------------------------|-------5--3-----------------8--------|
B|------------------------5h6--------------|----6--------5-----------6-----------|
G|------------------7----------------------|-7--------------5-----7--------------|
D|-----------------------------------------|-------------------8-----------------|
A|-----------------------------------------|-------------------------------------|
E|-----------------------------------------|-------------------------------------|
 
Rhythm/Lead repeats Verse riff
 
 
 
[PreChorus]
 
   Rhythm 
e|------------------------------------------|-------------------------------------|
B|------------------------------------------|-------------------------------------|
G|-5-5---------------5-5\--3------------3/--|-5----------------5\3----------------|
D|-5-5---------------5-5\--3------------3/--|-5----------------5\3----------------|
A|-3-3---------------3-3\--1------------1/--|-3----------------3\1----------------|
E|------------------------------------------|-------------------------------------|
 |
 | Lead
e|----------------------------------8-------|-3----------3-----------------5------|
B|---5----------5----------------6----------|------5--------5-----------6---------|
G|--------5----------5--------7-------------|---------5--------5-----7------------|
D|-----------5----------5--8----------------|-------------------------------------|
A|------------------------------------------|-------------------------------------|
E|------------------------------------------|-------------------------------------|
 
 
[Chorus]
e|-----------------------------------------------|
B|-----------------------------------------------|
G|-10------10-10--10--10-------------------------|  play 3x
D|-10------10-10--10--10---8----8--8--8----8--8--|
A|-8-------8--8---8---8----8----8--8--8----8--8--|
E|-------------------------6----6--6--6----6--6--|
 |
 |
e|-------------------------------------------------|
B|-------------------------------------------------|
G|-10------10-10--12--14--12----12-12--/14--14-14--| play 3x
D|-------------------------------------------------|
A|-8-------8--8---10--12--10----10-10--/12--12-12--|
E|-------------------------------------------------|
 
 
 Chorus ending:
e|--------------------------------------------------|
B|--------------------------------------------------|
G|--------------------------------------------------|
D|-10-----------------------8-----------------------|
A|-10-----------------------8-----------------------|
E|-8------------------------6-----------------------|
 |
 |
e|--------------------------------------------------|
B|--------------------------------------------------|
G|-10------9----------5----/7-----------------------|
D|--------------------------------------------------|
A|-8-------7----------3----/5-----------------------|
E|--------------------------------------------------|
 
 
 
[Verse 2]
   Play Verse part again
 
 
  
[PreChorus 2]
 
   Rhythm 
e|------------------------------------------|-------------------------------------|
B|------------------------------------------|-------------------------------------|
G|-5-5---------------5-5\--3------------3/--|-5----------------5\3----------------|
D|-5-5---------------5-5\--3------------3/--|-5----------------5\3----------------|
A|-3-3---------------3-3\--1------------1/--|-3----------------3\1----------------|
E|------------------------------------------|-------------------------------------|
 |
 | Lead
e|----------------------------------8-------|-3----------3-----------------5------|
B|---5----------5----------------6----------|------5--------5-----------6---------|
G|--------5----------5--------7-------------|---------5--------5-----7------------|
D|-----------5----------5--8----------------|-------------------------------------|
A|------------------------------------------|-------------------------------------|
E|------------------------------------------|-------------------------------------|
 
 
 
[Chorus 2] 
e|-----------------------------------------------|
B|-----------------------------------------------|
G|-10------10-10--10--10-------------------------|  play 4x
D|-10------10-10--10--10---8----8--8--8----8--8--|
A|-8-------8--8---8---8----8----8--8--8----8--8--|
E|-------------------------6----6--6--6----6--6--|
 |
 |
e|-------------------------------------------------|
B|-------------------------------------------------|
G|-10------10-10--12--14--12----12-12--/14--14-14--| play 4x
D|-------------------------------------------------|
A|-8-------8--8---10--12--10----10-10--/12--12-12--|
E|-------------------------------------------------|
 
 
 
[Solo]
   Backing Rhythm chords shown above 
 
   F                   Bb                  Dm7                           Bb
e|-------------------------------------|-------------------------------------------------------|
B|-------------------------------------|-------------------------------------------------------|
G|----------------10-------------------|--------------10-12b14r12p10-12~~~~~~b14---------------|
D|-----------10h12---12~~~~~~~\--------|--------10h12------------------------------------------|
A|-------------------------------------|-------------------------------------------------------|
E|-------------------------------------|-------------------------------------------------------|
 
  repeat same chords as above 
e|-----------------------------------------------------------------|
B|---------------10---10---10h13--10-------------------------------|
G|---------10-12----------------12--12p10----------10--------------|
D|-----\12-------------------------------12---10h12--12p10--10-----|
A|--------------------------------------------------------12--10-8-|
E|-----------------------------------------------------------------|
 
e|-----------------------------------------------------------|
B|-----------------------------------------------------------|
G|-----------------------------------------------------------|
D|-----------------------------------------------------------|
A|-10b11~~-------10--8---8-----------------------------------|
E|--------------------------8h10~--10-10~---10-10~---10-10\--|
 
e|-------------------------------------------------------------|
B|-------------------------------------------------------------|
G|-------------------------------------------------------------|
D|-----10--10--10------10~-10\--------10--10--10--12~----------|
A|-/12-------------/12------------/12--------------------------|
E|-------------------------------------------------------------|
 
e|---------------------------------------------------------------------------|
B|---------------------------------------------------------------------------|
G|-10--12--12~--12--12b14-12--10~--------12--12--12--12--12/14~--------------|
D|---------------------------------12p10-------------------------------------|
A|---------------------------------------------------------------------------|
E|---------------------------------------------------------------------------|
 
e|-------------------------------------------------------------------------|
B|-------------------------------------------------------------------------|
G|-----------------------------------------------------------10------10-12-|
D|--------------------------------------------10--10-12~--12------12-------|
A|-8-10-10~--10p8---8--10-10-10~--8----8--/12---12-------------------------|
E|---------------10-----------------10-------------------------------------|
 
e|--------------------------------------------------------------------------------------|
B|------10-13--10-10--10------10-13--10-------------------------------------------------|
G|-12b-------12-----12--12b14------12--pb14r12--7h10-7h10-7h10--------------------------|
D|-------------------------------------------------------------7h10-7h10----------------|
A|-----------------------------------------------------------------------8h10-8-10b12~--|
E|--------------------------------------------------------------------------------------|
 
e|---------------------------------------------------------------------------|
B|----------------------------------10---------------------------------------|
G|----------------------------------10---------------------------------------|
D|------------------------10-12p10-------------------------------------------|
A|-8h10p8h10-------8-10/12--------12-----------------------------------------|
E|----------10p8h10----------------------------------------------------------|
 
 
[Rhythm before Chorus]
e|--------------------------------|
B|--------------------------------|
G|--------------------------------|
D|-8----------8--8----8----8------|
A|-8----------8--8----8----8------|
E|-6----------6--6----6----6------|
 
 
 
[Final Chorus]
 
e|-----------------------------------------------|
B|-----------------------------------------------|
G|-10------10-10--10--10-------------------------|  repeat throughout
D|-10------10-10--10--10---8----8--8--8----8--8--|
A|-8-------8--8---8---8----8----8--8--8----8--8--|
E|-------------------------6----6--6--6----6--6--|
 |
 |
e|-------------------------------------------------|
B|-------------------------------------------------|
G|-10------10-10--12--14--12----12-12--/14--14-14--| repeat throughout
D|-------------------------------------------------|
A|-8-------8--8---10--12--10----10-10--/12--12-12--|
E|-------------------------------------------------|
 
  Chorus ending:
e|--------------------------------------------------|
B|--------------------------------------------------|
G|--------------------------------------------------|
D|-10-----------------------8-----------------------|
A|-10-----------------------8-----------------------|
E|-8------------------------6-----------------------|
 |
 |
e|--------------------------------------------------|
B|--------------------------------------------------|
G|-10------9----------5----/7-----------------------|
D|--------------------------------------------------|
A|-8-------7----------3----/5-----------------------|
E|--------------------------------------------------|
 
 
 
 
[Outro]
 
e|-----------------------------------------------|
B|----6-----6--------10------10\3~~~-------------|
G|-/7-----7---7--/10------10---\(3)~~------------|
D|-----------------------------------------------|
A|-----------------------------------------------|
E|-----------------------------------------------|


 
 
************************************
 
| (n) Ghost note
| h   Hammer-on
| p   Pull-off
| r   Release
| b   Bend
| pb  Pre-bend
| /   Slide up
| \   Slide down
| ~   Vibrato
 
************************************

            
            
Suggest correction
Creating personal tab
Creating personal tab
You can edit any tab online and save it as your Personal.

You can edit, replace or remove any tab part or add personal notes – all changes will be seen only by you.

Personal tabs can be accessed anytime from any device, even offline.
Learn more »
Give kudos to tab author, rate the tab!
1 2 3 4 5
comments
print report bad tab
2 comments total.
0 reply
khi.cozart 10 Aug 25, 2017 08:49 PM

Thanks!! I've been trying to learn this song for quite awhile

guest
You may want to rate the tab now too:
select rating
Wanna post a correction for this tab? Suggest correction