Oops, an error
Loading. Please wait.

At The Gallows End Tab

version 2
version 2

Whole song

Interactive

2,159 views 9 this week
no commentswrite comment
1 2 3 4 5
3 more votes to show rating
add to favorites
launch autoscroll
font size
0
reset
how to read this tab
guitar tuner
Autoscroll
slow
fast
+/-
esc
set tempo
stop
Help us to improve Ultimate-Guitar.com Take our survey!
×
Author
Difficulty
novice
I saw a post on this one that had the chorus line in it...
I didn't see that anyone got to any of the rest of the song...
Sadly I don't remember it all off the top of my head...
But here's what I do remember..

For the lighter verses...

Basic Chords
Am G F E

Am                  G
Sunrise I greet you The Beauty Of Your Light
F                  E
So Warm and tender Was never the night..

There are of course a few different ways to play those chords...
I use the barre versions...
   ebgdae
Am-555775
G- 334553
F- 112331
E- 001220

Just a suggestion there...

and the next riff (sorry no timing for you..pretty easy though..)
E5
---------------------------------|
---------------------------------|
---------------------------------|
---------------------------------|
-2-------------------------------|
-0-0-0-0-0-0-0-0-0-0-1-3-4-3-1-3-|

yeah lead into that with a slide from 12th fret low e to the E5 there...

and the chorus thing...I play some thing like this...(top of my head here..so it might 
off anyway)...

----------------------------|----------------|
----------------------------|----------------|
----------------------------|----------------|
-2-4-5---------2-4-5--2-----|---------3-3----|
--------2-4-5-----------3-2-|---------1-1-2--|
----------------------------|-0-2-3-0-----0--|

Throw some vibrato on those single notes...at least I do...
I also tend to use some harmonics to give em a little squeal...
but meh...

Anyway..hope this was somewhat helpful...
my first post...so don't judge it too harshly ha...
Suggest correction
Give kudos to tab author, rate the tab!
1 2 3 4 5
comments
print report bad tab
guest
You may want to rate the tab now too:
select rating
Wanna post a correction for this tab? Suggest correction