Oops, an error
Loading. Please wait.

At The Gallows End Tab

version 3
version 3

Whole song

Interactive

10,272 views 18 this week
1 commentread comment
1 2 3 4 5
x 5
add to favorites
launch autoscroll
font size
0
reset
how to read this tab
guitar tuner
Autoscroll
slow
fast
+/-
esc
set tempo
stop
Difficulty
Tuning
novice
D# G# C# F# A# D#
Candlemass - At the Gallows End


Intro lead
eb|---------------------------------------------------|
Bb|---------------------------------------------------|
Gb|------------7-------------/10~--12-10-10-9-7-------|
Db|-/7~-7-9-10---10-9-10-9~---------------------10-9~-|
Ab|---------------------------------------------------|
Eb|---------------------------------------------------|

Verse Chords
eb|-------------------|
Bb|-------------------|
Gb|-------------------|
Db|-7----5----3----2--|
Ab|-7----5----3----2--|
Eb|-5----3----1----0--|


Riff 1
eb|---------------------------------|
Bb|---------------------------------|
Gb|---------------------------------|
Db|---------------------------------|
Ab|-2-2-2-2-2-2-2-2-----------------|
Eb|-0-0-0-0-0-0-0-0-0-1-3-4-3-1-0-1-|
    . . . . . . . .


Riff 2
eb|----------------------------|
Bb|----------------------------|
Gb|----------------------------|
Db|----------------------------|
Ab|----2-1-----3-----2-1-3-3-2-|
Eb|-0------2-3----0------------|


Riff 3
eb|-------------------------------------------------------------|
Bb|-------------------------------------------------------------|
Gb|-------------------------------------------------------------|
Db|---------------------------------2-4-5-1---------------3-3---|
Ab|-2--4-5--1--2-4--2--4-5--1--2-4-----------3-2--2-4-5-2-1-1-2-|
Eb|-----------------------------------------------0-2-3-0-----0-|


Riff 4
eb|-----------------|------------------|
Bb|-----------------|------------------|
Gb|-----------------|------------------|
Db|-----------------|-------------10-9-|
Ab|-5/7-7-7-5-8-7-3-|-5/7-7-7-8-7-8--7-|
Eb|-3/5-5-5-3-6-5-1-|-3/5-5-5-6-5------|


Riff 5   play twice \/             then this \/
eb|--------------------------------|---------------|
Bb|--------------------------------|---------------|
Gb|--------------------------------|---------------|
Db|--------------------------------|---------3-3---|
Ab|---------------4-------------4--|-2-4-5-2-1-1-2-|
Eb|-0-0-1-4-3-1-0---0-0-1-4-3-1----|-0-2-3-0-----0-|
Suggest correction
comments
print report bad tab
1 comment total.
+1 reply
octopec 10 Oct 24, 2009 02:36 AM

Great tab. The only thing I find wrong is the chord succession during the solo, there's more chords being played than the ones listed but it's really hard to hear. Thanks!

guest
Wanna post a correction for this tab? Suggest correction