Oops, an error
Loading. Please wait.

Black Dwarf Bass Tab

version 1
version 1

Whole song

Interactive

1,030 views 1 this week
no commentswrite comment
1 2 3 4 5
3 more votes to show rating
add to favorites
launch autoscroll
font size
0
reset
guitar tuner
Autoscroll
slow
fast
+/-
esc
set tempo
stop
Help us to improve Ultimate-Guitar.com Take our survey!
×
-------------------------------------------------------------------------------
			     Black Dwarf - Candlemass
-------------------------------------------------------------------------------

Tabbed By : Tad_Eats_People

Tuning: BEADG

VERSE
G|-----------------------------|
D|-----------------------------|
A|------------------------1----|
E|-----------------------------|
B|-3--3-3--3-3-3-3--4--3-----4-| x12

CHORUS
G|------------------------------------|-----------------------
D|------------------------------------|			|
A|------------------------------------|			|
E|-0-0-0-0--0-0-0-2--3-3-3-3--3-3-3-3-|			|
B|------------------------------------| 			|
								| x2
G|------------------------------------|			|
D|------------------------------------|			|
A|------------------------------------|			|
E|----------------0--1-1-1-1—-1-1-1-1-|			|
B|-3-3-3-3--3-3-3---------------------|-----------------------

VERSE
G|-----------------------------|
D|-----------------------------|
A|------------------------1----|
E|-----------------------------|
B|-3--3-3--3-3-3-3--4--3-----4-| x12

CHORUS
G|------------------------------------|-----------------------
D|------------------------------------|			|
A|------------------------------------|			|
E|-0-0-0-0--0-0-0-2--3-3-3-3--3-3-3-3-|			|
B|------------------------------------| 			|
								| x2
G|------------------------------------|			|
D|------------------------------------|			|
A|------------------------------------|			|
E|----------------0--1-1-1-1—-1-1-1-1-|			|
B|-3-3-3-3--3-3-3---------------------|-----------------------

VERSE
G|-----------------------------|
D|-----------------------------|
A|------------------------1----|
E|-----------------------------|
B|-3--3-3--3-3-3-3--4--3-----4-| x8

BRIDGE
G|-----------------------------------|
D|-----------------------------------|
A|------------4-3~------------1-1----|
E|---4-3~---3----------4-3~-------4~-|
B|-3-----------------3---------------|

BASS THROUGH SOLO
G|-----------------------------------------------------------------|
D|-----------------------------------------------------------------|
A|-3-3-3-3-3-3-3-3-----------------1-1-1-1-1-1-1-1-----------------|
E|-----------------2-2-2-2-2-2-2-2-----------------0-0-0-0-0-0-0-0-|
B|-----------------------------------------------------------------| x3

G|---------------------------------|
D|---------0-0-------------0-0-----|
A|-0-0---------1-1-0-0---------1-1-|
E|-----4-4-------------4-4---------|
B|---------------------------------| x4

RIFF
G|----------------------------------------|
D|----------------------------------------|
A|------1~~-------1~~-------1~~-------1~~-|
E|----------------------------------------|
B|-3~~-------3~~-------3~~-------3~~------|

G|----2-2----3-3----2-2----3-3----2-2----3-3----2-2----3-3-|
D|---------------------------------------------------------|
A|-0~-----1~-----0~-----1~-----0~-----1~-----0~-----1~-----|
E|---------------------------------------------------------|
B|---------------------------------------------------------|

VERSE
G|-----------------------------|
D|-----------------------------|
A|------------------------1----|
E|-----------------------------|
B|-3--3-3--3-3-3-3--4--3-----4-| x12

CHORUS
G|------------------------------------|-----------------------
D|------------------------------------|			|
A|------------------------------------|			|
E|-0-0-0-0--0-0-0-2--3-3-3-3--3-3-3-3-|			|
B|------------------------------------| 			|
 |					|			| x4
G|------------------------------------|			|
D|------------------------------------|			|
A|------------------------------------|			|
E|----------------0--1-1-1-1—-1-1-1-1-|			|
B|-3-3-3-3--3-3-3---------------------|-----------------------

VERSE
G|-----------------------------|
D|-----------------------------|
A|------------------------1----|
E|-----------------------------|
B|-3--3-3--3-3-3-3--4--3-----4-| x8

RIFF
G|----------------------------------------|
D|----------------------------------------|
A|------1~~-------1~~-------1~~-------1~~-|
E|----------------------------------------|
B|-3~~-------3~~-------3~~-------3~~------|

G|----2-2----3-3----2-2----3-3----2-2----3-3----2-2----3-3-|
D|---------------------------------------------------------|
A|-0~-----1~-----0~-----1~-----0~-----1~-----0~-----1~-----|
E|---------------------------------------------------------|
B|---------------------------------------------------------|

OUTRO
G|------------------------------------------------------------------|
D|------------------------------------------------------------------|
A|------------------------------------------------------------------|
E|-1-0----------1-0----------1-0----------1-0----------1--0---------|
B|-----3~~~~--------3~~~~--------3~~~~--------3~~~~-----------3~~~~-|


| /  slide up
| \  slide down
| h  hammer-on
| p  pull-off
| ~  vibrato
| +  harmonic
| x  Mute note
===============================================================================


Suggest correction
Give kudos to tab author, rate the tab!
1 2 3 4 5
comments
print report bad tab
guest
You may want to rate the tab now too:
select rating
Wanna post a correction for this tab? Suggest correction