Oops, an error
Loading. Please wait.

Black Stone Wielder Tab

version 1
version 1

Whole song

1,049 views 18 this week
no commentswrite comment
1 2 3 4 5
please rate
add to favorites
launch autoscroll
font size
0
reset
how to read this tab
guitar tuner
Autoscroll
slow
fast
+/-
esc
set tempo
stop
Help us to improve Ultimate-Guitar.com Take our survey!
×
Contributor
Difficulty
Tuning
intermediate
D# G# C# F# A# D#
So this is my first tab ive made. Im just listening to the song and tabbing it 
now. I cant find a tab for this anywhere so im just making one.
THE TUNING, LIKE MOST SONGS FROM THIS ALBUM IS SOMEWHERE BETWEEN HALFSTEP DOWN AND DROP D.

HEAVILY PALM MUTED INTRO 
e---------------------------------------------------|
B---------------------------------------------------|
G---------------------------------------------------|  X4
D---------------------------------------------------|
A-2-2-2-2-2-2---------------------------------------|
E-0-0-0-0-0-0-2-3-2-3-2-3-3/7-7-7-7-7-7-6-7-6-3-2-3-|



|----------------------------------------------------------|
|----------------------------------------------------------|
|----------------------------------------------------------| X2 
|----------------------------------------------------------|
|-------------------------------------6h7p6---6------------|
|-7-7-7-7-7-7-6-7-6-3-2-2-7-7-7-7-7-7-------8---8----------|


e---------------------------------------------------|
B---------------------------------------------------|
G---------------------------------------------------|  X2
D---------------------------------------------------|
A-2-2-2-2-2-2---------------------------------------|
E-0-0-0-0-0-0-2-3-2-3-2-3-3/7-7-7-7-7-7-6-7-6-3-2-3-|


|----------------------------------------------------------|
|----------------------------------------------------------|
|----------------------------------------------------------|
|----------------------------------------------------------|
|----------------------------------------------------------|
|-7-7-7-7-7-7-6-7-6-3-2-2-7-7-7-7-7-7-6-7-6-3-2-3----------|


|-------------------------------------------------------------------|
|-------------------------------------------------------------------|
|-------------------------------------------------------------------|
|----------------------------------------8---11----13---9----8---12-|
|--------------------------------7---3------------------------------|
|-7--7--7--7--7--7-6-7-6-3-2-3--------------------------------------|

INTERLUDE CHORUS
|----------------------------------------------------------|
|----------------------------------------------------------|
|----------------------------------------------------------| x4 
|----------------------------------------------------------|
|--------6-6----------3-3----------2-2----1----------------|
|-0--0-0-------0--0-0-------0--0-0------0---0--1-----------|



|-----------------------------------------------------------------|
|-----------------------------------------------------------------|
|-----------------------------------------------------------------|  x2
|-----------------------------------------------------------------|
|---2---2--3---3---2---2---3---3---2---2---3---7--6---2---2--2--2-|
|-0---0---0---0---0---0---0---0---0---0---0---0--0---0---0--0--0--|

MAIN RIFF FOR VERSE.. "THE RAIN KEPT ON FALLING AND DARKENED THE SKY"
|-----------------------------------------------------------------|
|-----------------------------------------------------------------|
|-----------------------------------------------------------------|  x8  
|-----------------------------------------------------------------|
|---2---2--3---3---2---2---3---3---2---2---3---3--2---2----3---3--|
|-0---0---0---0---0---0---0---0---0---0---0---0--0---0---0---0----|

INTERLUDE CHORUS
|----------------------------------------------------------|
|----------------------------------------------------------|
|----------------------------------------------------------| x4 
|----------------------------------------------------------|
|--------6-6---------3-3-----------2-2----1----------------|
|-0--0-0-------0--0-0-------0--0-0------0---0--1-----------|

"A PROCESSION OF DARK COATS FOLLOWED THE STAR"
|-----------------------------------------------------------------|
|-----------------------------------------------------------------|
|-----------------------------------------------------------------|  x8  
|-----------------------------------------------------------------|
|---2---2--3---3---2---2---3---3---2---2---3---3--2---2----3---3--|
|-0---0---0---0---0---0---0---0---0---0---0---0--0---0---0---0----|

INTERLUDE CHORUS
|-------------------------------------------------------------|
|-------------------------------------------------------------|
|-------------------------------------------------------------| x4 
|-------------------------------------------------------------|
|--------6-6---------3-3-----------2-2----1-------------------|
|-0--0-0-------0--0-0-------0--0-0------0---0--1--------------|

MAIN CHORUS
|----------------------------------------------------------|
|----------------------------------------------------------|
|----------------------------------------------------------|  X2
|----------------------------------------------------------|
|----------------------------------------------------------|
|-7--6--3--2--0---0-0-2--3--3--2--3--7--1-1-1--------------|


|-------------------------------------------------------------------|
|-------------------------------------------------------------------|
|-------------------------------------------------------------------|
|----------------------------------------8---11----13---9----8---12-|
|--------------------------------7---3------------------------------|
|-------------------------------------------------------------------|


SLOW PART
|----------------------------------------------------------|
|----------------------------------------------------------|
|----------------------------------------------------------|  
|----------------------------------------------------------|
|---------2--4--6-----6--2-6-6--1-1------------------------|
|-2--4--6-------------------------------9---4--4--7-6-4----|


|----------------------------------------------------------|
|----------------------------------------------------------|
|----------------------------------------------------------|  
|----------------------------------------------------------|
|----3--5-5-6-6----7--6--4--6s1-1-----4---2-1/6---1--3-----|
|-6--------------------------------------------------------|


|-------------------------------------------------------------------|
|-------------------------------------------------------------------|
|-------------------------------------------------------------------|
|----------------------------------------8---11----13---9----8------|
|--------------------------------7---3--------------------------5---|
|-------------------------------------------------------------------|


|-------------------------------------------------------------------|
|-------------------------------------------------------------------|
|-------------------------------------------------------------------|
|----------------------------------------8---11----13---9----8---12-|
|--------------------------------7---3------------------------------|
|-------------------------------------------------------------------|

OTHER GUITAR COMES IN..
|-15---14p12-14-------------------------------------------------------------|
|----------------17p15-17-15-13-12------------------------------------------|
|--------------------------------------/9-9h11/12---14b16--14p12p11---------|  
|---------------------------------------------------------------------------|
|---------------------------------------------------------------------------|
|---------------------------------------------------------------------------|


|-s15--14p12-14-12--22b24-22p20p19------------------------------------------|
|------------------------------------/9-9h11/12---14b16--14p12p11-----------|
|---------------------------------------------------------------------------|  
|---------------------------------------------------------------------------|
|---------------------------------------------------------------------------|
|---------------------------------------------------------------------------|

SOLO. (not super sure, sorry)

|---------------------------------------------------------------------------|
|-15b17-15b17-15b17-15b17r15-13-12-12---12-12h13p12----12h13-12h13p12-------|
|---------------------------------------------------14----------------------|  
|---------------------------------------------------------------------------|
|---------------------------------------------------------------------------|
|---------------------------------------------------------------------------|


|-19-17-15--17-15-14--15-14-12--------------------------------------|
|-------------------------------19-17-15--17-15-13--15-13-12--------|
|-------------------------------------------------------------------|  
|-------------------------------------------------------------------|
|-------------------------------------------------------------------|
|-------------------------------------------------------------------|


|-------------------------------------------------------------------------|
|-------------------------------------------------------------------------|
|-17-16-14--16-14-12--14-12-11--------------------------------------------|
|-------------------------------17-16-14--16-14-12--14-12-10--------------|
|-------------------------------------------------------------17-15-14----|
|-------------------------------------------------------------------------|

|-------------------------------------------------------------------|
|-------------------------------------------------------------------|
|-2h4/5--4h4/7--5h7/9--7h9/11--9h11/12-11h12/14-12h14/16------------|  
|-------------------------------------------------------------------|
|-------------------------------------------------------------------|
|-------------------------------------------------------------------|


|--------------------------------12-14-15--14-15-17--15-17-19-------|
|-12-13-15---13-15-17--15-17-19-------------------------------------|
|-------------------------------------------------------------------|  
|-------------------------------------------------------------------|
|-------------------------------------------------------------------|
|-------------------------------------------------------------------|

(the 19b 21b thing is done like 8 times. not three)
|-22b24-22b24-22b24--22b24-22-20-19-19-19b-19-19b-19b-19b-19-21-19b-------|
|--------------------------------------21b----21b-21b-21b-------21b-------|
|-------------------------------------------------------------------------|  
|-------------------------------------------------------------------------|
|-------------------------------------------------------------------------|
|-------------------------------------------------------------------------|

"THE LEADER HE KNELT THERE TO GREET THE NEWBORN"
|-----------------------------------------------------------------|
|-----------------------------------------------------------------|
|-----------------------------------------------------------------|  x8  
|-----------------------------------------------------------------|
|---2---2--3---3---2---2---3---3---2---2---3---3--2---2----3---3--|
|-0---0---0---0---0---0---0---0---0---0---0---0--0---0---0---0----|

FILL THAT GOES WITH INTERLUDE CHORUS
|-------------------------------------------------------------------|
|-------------------------------------------------------------------|
|-------------------------------------------------------------------|  
|-------------------------------------------------------------------|
|--------6-6--------3-3---2-1---2-1---------------------------------|
|-0--0-0-----0--0-0-----0-----3-----2-3-----------------------------|


MAIN CHORUS
|----------------------------------------------------------|
|----------------------------------------------------------|
|----------------------------------------------------------|  X2
|----------------------------------------------------------|
|----------------------------------------------------------|
|-7--6--3--2--0---0-0-2--3--3--2--3--7--1-1-1--------------|


"BLACK STONE WIELDER IS BORN.."
|-------------------------------------------------------------------|
|-------------------------------------------------------------------|
|-------------------------------------------------------------------| X12 
|-------------------------------------------------------------------|
|-7-7h8p7----3-2----------------------------------------------------|
|--0--------0---3-2-1-----------------------------------------------|


MAIN CHORUS
|----------------------------------------------------------|
|----------------------------------------------------------|
|----------------------------------------------------------|  X2
|----------------------------------------------------------|
|----------------------------------------------------------|
|-7--6--3--2--0---0-0-2--3--3--2--3--7--1-1-1--------------|

OUTRO
|--------------------------------------------------------------------|
|--------------------------------------------------------------------|
|--------------------------------------------------------------------|  
|----------------------------4-5-4-8-5-4-----------------------------|
|--------------2-3-2-6-3-2-------------------------------------2---2-|
|-2-3-2-6-3-2-----------------------------7-6-3-2-3-2----3-2---0---0-|
comments
We did not receive enough feedback on this tab! Please rate:
print report bad tab
1 2 3 4 5
I want to post or [tab]
guest
You may want to rate the tab now too:
select rating
Please do not post tabs as comments. Select "correction" instead!