Oops, an error
Loading. Please wait.

Clouds Of Dementia Tab

221 views 1 this week
2 commentsread comments
1 2 3 4 5
x 3
add to favorites
launch autoscroll
font size
0
reset
how to read this tab
guitar tuner
Autoscroll
slow
fast
+/-
esc
set tempo
stop
Help us to improve Ultimate-Guitar.com Take our survey!
×
-----------------------------------------------------------------------------------
Song: Clouds of Dementia
Band: Candlemass
Album: Death Magic Doom
Tabbed by: TrollFaceJesus
E-mail: trollfacejesus@gmail.com


Hey everyone, this is my tab for this song, and I think it sounds pretty awesome.
All of the rhythm sections in the song are here, but I didn't tab out the solo.
Hopefully everything in here is accurate, and you guys find this tab to be helpful!
If you have any comments, questions or corrections to point out, please feel free
to leave a message here, or to send me an email! :D



Tuning: C#



Intro (0:00)
============

Riff 1a

 1 e + a 2 e + a 3 e + a 4 e + a  1 e + a 2 e + a 3 e + a 4 e + a
|-------------------------------||-------------------------------|
|-------------------------------||-------------------------------|
|-------------------------------||-------------------------------| x1
|-------------------------------||-------------------------------|
|----------------3-----------3--||2-----------0---3--------------|
|2-----------0h2----------------||----------------1--------------|




Riff 1b

 1 e + a 2 e + a 3 e + a 4 e + a  1 e + a 2 e + a 3 e + a 4 e + a
|-------------------------------||-------------------------------|
|-------------------------------||-------------------------------|
|-------------------------------||-------------------------------| x1
|-------------------------------||----------------3--------------|
|----------------3-----------3--||2-----------2------------------|
|2-----------0h2----------------||-------------------------------|




Riff 1a x 1

Riff 1b x 1




Verse I (0:23)
==============

Riff 1a x 1

Riff 1b x 1

Riff 1a x 1

Riff 1b x 1




Riff 2a

 1 + 2 + 3 + 4 +  1 + 2 + 3 + 4 +  1 + 2 + 3 + 4 +  1 + 2 + 3 + 4 +
|---------------||---------------||---------------||---------------|
|---------------||---------------||---------------||---------------|
|---------------||---------------||---------------||---------------| x1
|---------------||---------------||---------------||---------------|
|0-------1---0--||0-------1---0--||0-------1---0--||6-------4------|
|------1--------||------1--------||------1--------||4-------2------|




Riff 2b

 1 + 2 + 3 + 4 +  1 + 2 + 3 + 4 +  1 + 2 + 3 + 4 +  1 + 2 + 3 + 4 +
|---------------||---------------||---------------||---------------|
|---------------||---------------||---------------||---------------|
|---------------||---------------||---------------||---------------| x1
|---------------||---------------||---------------||---------------|
|0-------1---0--||0-------1---0--||0-------1---0--||6-------3------|
|------1--------||------1--------||------1--------||4-------1------|




Verse II (1:06)
===============

Riff 1a x 1

Riff 1b x 1

Riff 1a x 1

Riff 1b x 1




Chorus I (1:28)
===============

Riff 3a

 1 e + a 2 e + a 3 e + a 4 e + a  1 e + a 2 e + a 3 e + a 4 e + a
|-------------------------------||-------------------------------|
|-------------------------------||-------------------------------|
|-------------------------------||-------------------------------| x1
|-------------------------------||-------------------------------|
|2---------------------------2--||1------------------------------|
|0-------2-------3--------------||----3---2---3---2h3p2----------|




Riff 3b

 1 e + a 2 e + a 3 e + a 4 e + a  1 e + a 2 e + a 3 e + a 4 e + a
|-------------------------------||-------------------------------|
|-------------------------------||-------------------------------|
|-------------------------------||-------------------------------| x1
|-------------------------------||-------------------------------|
|2---------------------------2--||1---2---4---2---1h2p1----------|
|0-------2-------3--------------||-------------------------------|




Riff 3a x 1

Riff 3b x 1

Riff 3a x 1

Riff 3b x 1

Riff 3a x 1

Riff 3b x 1




Bridge I (2:11)
===============

Riff 4 (Guitar 1)

 1 + 2 + 3 + 4 +  1 + 2 + 3 + 4 +  1 + 2 + 3 + 4 +  1 + 2 + 3 + 4 +
|---------------||---------------||---------------||---------------|
|---------------||---------------||---------------||---------------|
|---------------||---------------||---------------||---------------| x2
|----0----------||---------------||----0----------||----5---4---5--|
|2-----2--------||---------------||2-----2--------||---------------|
|--------3-----3||2-----2-1------||--------3-----3||2--------------|


Riff 4 (Guitar 2)

 1 + 2 + 3 + 4 +  1 + 2 + 3 + 4 +  1 + 2 + 3 + 4 +  1 + 2 + 3 + 4 +
|---------------||---------------||---------------||---------------|
|----6----------||---------------||----6----------||---------------|     Play the last note as a harmonic
|7-----7--------||---------------||7-----7--------||----7---6--[7]-| x2  on the second time only.
|--------9-----9||8-----8-7-----7||--------9-----9||8--------------|
|---------------||---------------||---------------||---------------|
|---------------||---------------||---------------||---------------|




Riff 5

 1 e + a 2 e + a 3 e + a 4 e + a
|-------------------------------|
|-------------------------------|
|3-------3-------3--------------| x2
|----2-------2-------2----------|
|-------------------------------|
|-------------------------------|




Solo (2:38)
===========

Riff 6 (Rhythm)

 1 e + a 2 e + a 3 e + a 4 e + a
|-------------------------------|
|-------------------------------|
|2------------------------------| x2
|0-----------3------------------|
|------------1------------------|
|-------------------------------|




Riff 5 x 2

Riff 6 x 2




Riff 7 (Rhythm)

 1 e + a 2 e + a 3 e + a 4 e + a
|-------------------------------|
|-------------------------------|
|-------------------------------| x2
|-------------------------------|
|1-------1-------1--------------|
|----0-------0-------0----------|




Riff 6 x 2

Riff 7 x 2

Riff 6 x 2




Riff 8 (Rhythm)

 1 e + a 2 e + a 3 e + a 4 e + a
|-------------------------------|
|-------------------------------|
|-------------------------------| x2
|-------------------------------|
|5-------5-------5--------------|
|----4-------4-------4----------|




Riff 9 (Rhythm)

 1 e + a 2 e + a 3 e + a 4 e + a
|-------------------------------|
|-------------------------------|
|6------------------------------| x2
|4-----------5------------------|
|------------3------------------|
|-------------------------------|




Riff 8 x 1

Riff 9 x 1




Bridge II (3:36)
================

Riff 10

 1 + 2 + 3 + 4 +  1 + 2 + 3 + 4 +  1 + 2 + 3 + 4 +  1 + 2 + 3 + 4 +
|---------------||---------------||---------------||---------------|
|---------------||---------------||---------------||---------------|
|---------------||---------------||---------------||---------------| x2
|---------------||---------------||---------------||--------3------|
|--------3------||2--------------||--------3------||2--------------|
|2--------------||--------1------||2--------------||---------------|




Verse III (3:59)
================

Riff 1a x 1

Riff 1b x 1

Riff 1a x 1

Riff 1b x 1




Chorus II (4:21)
================

Riff 3a x 1

Riff 3b x 1

Riff 3a x 1

Riff 3b x 1

Riff 3a x 1

Riff 3b x 1

Riff 3a x 1

Riff 3b x 1

Riff 3a x 1

Riff 3b x 1

Riff 3a x 1

Riff 3b x 1

Riff 3a x 1

Riff 3b x 1



By this time, the song has faded into silence.



And that's it!


************************************

| /   slide up
| \   slide down
| h   hammer-on
| p   pull-off
| v   vibrato
|[ ]  harmonic
| •   mute note
| b   bend
| pb  pre-bend
| br  bend release
| pbr pre-bend release
| brb bend release bend

************************************
Suggest correction
Give kudos to tab author, rate the tab!
1 2 3 4 5
comments
print report bad tab
2 comments total.
+1 reply
BadSongBlues 104 May 03, 2014 10:39 AM

Good tab, but I think guitar 2 in the harmony should be
Riff 4 (Guitar 2)
|---------------------------------------------------|
|-----7------------------------7--------------------|
|--7----7-------------------7----7-----------7-6-7--| x2
|---------9---9-8---8-7---7--------9---9-8----------|
|---------------------------------------------------|
|---------------------------------------------------|

with a harmonic on the last note the second time.

0 reply
TrollFaceJesus 1,104 Mar 17, 2015 01:52 AM

Thanks for the correction! The harmony you posted is spot on, and I've made the appropriate revisions to the tab (sorry that it took so long to get around to it though; I haven't been very active on UG for the last couple of years until recently.)

Thanks again for looking at my tabs, by the way. Hopefully you have been finding them useful! :D

guest
You may want to rate the tab now too:
select rating
Wanna post a correction for this tab? Suggest correction