Oops, an error
Loading. Please wait.

Crystal Ball Bass Tab

version 1
version 1

Whole song

Interactive

1,404 views 1 this week
no commentswrite comment
1 2 3 4 5
please rate
add to favorites
launch autoscroll
font size
0
reset
guitar tuner
Autoscroll
slow
fast
+/-
esc
set tempo
stop
Help us to improve Ultimate-Guitar.com Take our survey!
×
Author
Use a pick =)

Intro:
|---------------------|     
|5-0-6----------------| 
|------6-5-6-5--------| x4   
|--------------6-5-6-5|

|------------|
|------------|
|------------|
|-0----1-0-1-|

Verse:
|----------------------------|
|----------------------------|
|----------------------------| x4
|-0--0-0-0--0-0-0--0-0-1-0-1-|

|----------------------------|
|----------------------------|
|----------------------------| x2
|-7--7-7-7--7-7-7--7-7-8-7-5-|

|----------------------------|
|----------------------------|
|----------------------------| x2
|-2--2-2-2--2-2-2--2-2-3-2-0-|

|---------------------|
|---------------------|
|---------------------| 
|-5---3---1---7--5--3-|

Repeat the Intro
Repeat the Verse
Than:
|---------------------|     
|5-0-6----------------| 
|------6-5-6-5--------| x4   
|--------------6-5-6-5|

Guitar Solo:
|------------|
|------------|
|------------| x2
|-3----2x----|

|------------|
|------------|
|------------| x2
|-8----7x----|

|------------|
|------------|
|------------| x2
|-3----2x----|

|--------|
|--------|
|--------| x2
|-8----7\|

Bridge:
|----------------------------|----------------------------|
|----------------------------|----------------------------|
|----------------------------|----------------------------| x4
|2-0-0-3-0-0-5-0-0-6-0-0-6-6\|2-0-0-3-0-0-5-0-0-6-0-0-6-6\|

|--------|---------|-------|---------|
|--------|---------|-------|---------|
|-------1|-0------6|-5-----|---3---2-| x4
|--------|---------|-------|-3---2---|

Guitar Solo II:
|----------------|------------|
|----------------|------------|
|----------------|------------| x4
|--5---1--0---0-1|-7---3--2---|

|------------|
|------------|
|------------|
|-0----1-0-1-|

Repeat the Verse
Repeat th Intro

Outro:
|----------------|---------------|------------|----|
|----------------|---------------|------------|----|
|----------------|---------------|------------|----|
|--5---1--0---0-1|-7---3--2---3-2|-5----1-0-1-|0~~~|


I used a Guitar Pro file as reference, thank you
Suggest correction
Give kudos to tab author, rate the tab!
1 2 3 4 5
comments
print report bad tab
guest
You may want to rate the tab now too:
select rating
Wanna post a correction for this tab? Suggest correction