Oops, an error
Loading. Please wait.

Dark Are The Veils Of Death Tab

version 1
version 1

Whole song

Interactive

1,863 views 9 this week
no commentswrite comment
1 2 3 4 5
x 3
add to favorites
launch autoscroll
font size
0
reset
how to read this tab
guitar tuner
Autoscroll
slow
fast
+/-
esc
set tempo
stop
Help us to improve Ultimate-Guitar.com Take our survey!
×
Difficulty
Tuning
intermediate
D# G# C# F# A# D#
Candlemass - Dark are the veils of Death


Riff 1
eb|-----------------------------|
Bb|-----------------------------|
Gb|-----------------------------|
Db|-----------------------------|
Ab|---2-3---5/3-----------------|
Eb|-0-0h1-0-3/1-0-3/6-5-1/6-5-1-|
    .     . 


Riff 2a
eb|----------------------------|----------------------------|
Bb|----------------------------|----------------------------|
Gb|----------------------------|----------------------------|
Db|-2--------------------------|-2--------------------4-----|
Ab|-2--------------------------|-2--------------------2--2--|
Eb|-0-0-0-1-0-0-3--0-0-0-1h3p1-|-0-0-0-1-0-0-3--0-0-0----0--|
      . .   . .    . . .           . .   . .    . . . 


Riff 2b
eb|----------------------------|----------------------------|
Bb|----------------------------|----------------------------|
Gb|----------------------------|----------------------------|
Db|-2--------------------------|-2--------------------------|
Ab|-2--------------------------|-2--------------------------|
Eb|-0-0-0-1-0-0-3--0-0-0-1h3p1-|-0-0-0-1-0-0-333333-1111111-|
      . .   . .    . . .           . .   . . ...... ....... 


Riff 3
eb|-------------------------------------------------|
Bb|-------------------------------------------------|
Gb|-------------------------------------------------|
Db|-------------------------------------------------|
Ab|-0h1-1-1-1-1-1-1-1-1-3p2-----------3p2-----------|
Eb|---------------------1p0-0-0-0-0-0-1p0-0-0-0-0-0-|
        . . . . . . . .     . . . . .     . . . . .


eb|------------|
Bb|------------|
Gb|-2-----5--3-|
Db|-2--3--5--3-|
Ab|-0--3--3--1-|
Eb|----1-------|


Riff 4 (fast palm-muted picking on single notes)
eb|-----------------------|
Bb|-----------------------|
Gb|-----------------------|
Db|-----------------------|
Ab|-3~-4~-6~-4~-3~-2~-5-4-|
Eb|-------------------3-2-|


Riff 5
eb|-----------------------------|
Bb|-----------------------------|
Gb|-----------------------------|
Db|-----------------------------|
Ab|-7-7-7-7-7-7-8--7-7-7-7-5--8-|
Eb|-5-5-5-5-5-5-6--5-5-5-5-3--6-|
    . . . . . .    . . . . 


Riff 6
eb|-----------------|
Bb|-----------------|
Gb|-----------------|
Db|-----------------|
Ab|-2-1-5-4-----3---|
Eb|---------3-2---1-|


Riff 7
eb|----------------------------|
Bb|----------------------------|
Gb|----------------------------|
Db|-2-------------7--7-6-------|
Ab|-2--5-7-8--8-7-5--5-4-8--7--|
Eb|-0--3-5-6--6-5--------6--5--|


Riff 8
eb|-----------------|
Bb|-----------------|
Gb|-------------5-4-|
Db|-------------5-4-|
Ab|-2-2-2-2-2-2-3-2-|
Eb|-0-0-0-0-0-0-----|
    . . . . . .
Suggest correction
Give kudos to tab author, rate the tab!
1 2 3 4 5
comments
print report bad tab
guest
You may want to rate the tab now too:
select rating
Wanna post a correction for this tab? Suggest correction